Kings Of Convenience Tabs

Homesick

3 versions

TAB

            Homesick Tab by Kings Of Convenience


|-3--------3--2--------2--0--------0----------------------------------|
|-------0-----------0-----------0-----3--------3--0--------0--3-------|
|-0--0-----0--0--0-----0--0--0-----0--------0-----------0-----------0-|
|-------------------------------------0--0-----0--0--0-----0--0--0----|
|---------------------------------------------------------------------|
|---------------------------------------------------------------------|

|---------------------------------------------------------------------|
|-3--0----------------------------------------------------------------|  
|---------------------------------------------------------------------|
|-0--0----------------------------------------------------------------|
|---------------------------------------------------------------------|
|---------------------------------------------------------------------|



Repeat throughout song    

Added On December 5th, 2013

SHARE

Comments

blog comments powered by Disqus

VERSIONS

ADVERTISEMENT