Kinks Tabs

Hard Way

1 versions

TAB

            Hard Way Tab by Kinks


-------------------------------------------------------------------------------
			     THE HARD WAY - The Kinks
-------------------------------------------------------------------------------
Tabbed by: Randy
Email: peaveyplayer9@yahoo.com

Tuning: Standard

Opening: Guitar 1
e|-----------------------------|
B|-----------------------------|
G|-------------3-3--1-1--------|     x2!!
D|-3-3--1-1---3-3--1-1---------|
A|-3-3--1-1--------------------|
E|-----------------------------|

Then Guitar 2:

e|----------------------------|
B|----------------------------|
G|-------------3-3--1-1-------|
D|7>>3-3-3--1-1---3-3--1-1----|
A|----3-3--1-1----------------|
E|----------------------------|    

Added On December 5th, 2013

SHARE

Comments

blog comments powered by Disqus

ADVERTISEMENT