Kinks Tabs

Top Of The Pops

1 versions

TAB

            Top Of The Pops Tab by Kinks


-----------------------------------------------------------------------------
		       Top of the Pops – The Kinks
-----------------------------------------------------------------------------

Tuning:EADGBe

INTRO/VERSE
e|---------------------------------------------------------------------------|
B|---------------------------------------------------------------------------|
G|----------------2------------------------2---------------------------------|
D|--7-7-7--5-5--2-2-2--5-5---7-7-7--5-5--2-2-2-------------------------------|
A|--7-7-7--5-5--2-2-2--5-5---7-7-7--5-5--2-2-2-------------------------------|
E|--5-5-5--3-3--0-0-0--3-3---5-5-5--3-3--0-0-0-------------------------------|

End of verse:
e|--------------------------------------------------------------|
B|---------------------------------------------8-------8--------|
G|----------------2----------------------9-7-9---9-7-9---9-7-5--|  go to
D|--7-7-7--5-5--2-2-2--5-5---7-7-7--5-5-------------------------| next verse
A|--7-7-7--5-5--2-2-2--5-5---7-7-7--5-5-------------------------|
E|--5-5-5--3-3--0-0-0--3-3---5-5-5--3-3-------------------------|

Bridge:
e|------------------------------------------|
B|-----------------------5------------------|
G|-7---5-7-5 5h7---5-7-5---7-5-5h7-5--------|Repeat as necessary
D|-----------------------------------5-5h7--|
A|------------------------------------------|
E|------------------------------------------|    

Added On December 5th, 2013

SHARE

Comments

blog comments powered by Disqus

ADVERTISEMENT