Kiss Tabs

Everytime I Look At You

1 versions

TAB

            Every Time I Look At You Tab by Kiss


#----------------------------------PLEASE NOTE-----------------------------#
#This file is the author's own work and represents their interpretation of #
#the song. You may only use this file for private study, scholarship, or   #
#research.                                                                 #
#--------------------------------------------------------------------------#

EVERYTIME I LOOK AT YOU (from the KISS-LP "REVENGE")
-----------------------

transcribed by Peter Bibo (pbibo@dds.nl)

E# Tuning or capo on 1st fret.

Key:
/    = slide up
\    = slide down
b    = bend (whole step)
b^   = bend (1/2 step)
b^^  = bend (1 1/2 steps)
pb   = pre-bend
r    = release-bend
r^   = release-bend half-step
h^   = hammer-on
p^   = pull-off
~    = Vibrato
*    = Natural Harmonic
#(#) = Trill
**   = Artificial Harmonic
x    = Muted String (Palm Muting)
X    = Muted String (Fretboard Muting)
(\)  = Dive w/Bar


Rhythm Fig. 1 [acoustic guitar w/metal strings]
                                               
E#|-3-----3-----0--2--7--2------------------------------|
B#|-3-----3-----1--3--5--3------------------------------|
G#|-0-----0-----0--2--4--2------------------------------|
D#|-0-----0-----2--0--5--0------------------------------|
A#|-2-----2-----3---------------------------------------|
E#|-3-----3-----0---------------------------------------|


Rhythm Fig. 2 [acoustic guitar w/metal strings]

E#|-3------------3---------3--------3-------------------|
B#|-3------------1---------1--------1-------------------|
G#|-0------------2---------0--0-----0-------------------|
D#|-0------------3---------2--0h^2----------------------|
A#|-2----------------------3----------------------------|
E#|-3---------------------------------------------------|
    Try..        And..     day.

Rhythm Fig. 3 [acoustic guitar w/metal strings]
                                               
E#|-3---------2---------1---------0-----0---0-----------|
B#|-3---------3---------1---------1-----1---1-----------|
G#|-0---------4---------2---------0---0-0-0-0-----------|
D#|-0---------4---------3---------2---2---0-------------|
A#|-2---------2-------------------3---3---2-------------|
E#|-3---------2-------------------0---------------------|
    There's.. don't..   And..     away.

Rhythm Fig. 4 [acoustic guitar w/metal strings]
                                               
E#|-0------2---2--2-2-2h^3--2--0---0------0------2------|
B#|-1------3---3--3-3-3-----3--3---1------1------3------|
G#|-2------2---2--2-2-2-----2--2---2------0------2------|
D#|-2------0---0--0-0-0-----0--0---2------2------0------|
A#|-0------------------------------0------3-------------|
E#|-0------------------------------0------0-------------|
    Ooh..  make..                  I..    lost.. way.

Rhythm Fig. 5 [acoustic guitar w/metal strings]
                                               
E#|-3-----3-----0--2--7--2-----5-0-2---2----------------|
B#|-3-----3-----1--3--5--3-----3---------3--------------|
G#|-0-----0-----0--2--4--2------------------------------|
D#|-0-----0-----2--0--5--0------------------------------|
A#|-2-----2-----3---------------------------------------|
E#|-3-----3-----0---------------------------------------|


Rhythm Fig. 6 [acoustic guitar w/metal strings]
                                               
E#|-0------2--------3------0----2--7--5--5---10---------|
B#|-0------3--------3------1----3--5--7----7-10---------|
G#|-0------2--------0------0----2--4--7-----------------|
D#|-2------0--------0------2----0--5--7-----------------|
A#|-2---------------2------3----------------------------|
E#|-0---------------3------0----------------------------|
    hold.. things.. told.. come ea-si-ly
                                               
E#|-3-3-3-3-3/5-----------------------------------------|
B#|-5-5-5-5-5/7-----------------------------------------|
G#|-5-5-5-5-5/7-----------------------------------------|
D#|-5-5-5-5-5/7-----------------------------------------|
A#|-----------------------------------------------------|
E#|-----------------------------------------------------|


Rhythm Fig. 7 [acoustic guitar w/metal strings]
                                               
E#|-3-------------0-----3----5-7-0----------------------|
B#|-3----1p^0---0-1-----3----5-7-1----------------------|
G#|-0---------2---0-----0--------0----------------------|
D#|-0-------------2-----0--------2----------------------|
A#|-2-------------3-----2--------3----------------------|
E#|-3-------------0-----3--------0----------------------|


Rhythm Fig. 8 [acoustic guitar w/metal strings]
                                               
E#|-3-----1-----0----------3-----2-----1-----0----------|
B#|-3-----1-----1----------3-----3-----1-----1----------|
G#|-0-----2-----0----------0-----4-----2-----0----------|
D#|-0-----3-----2----------0-----4-----3-----2----------|
A#|-2-----3-----3----------2-----2-----3-----3----------|
E#|-3-----1-----0----------3-----2-----1-----0----------|
    I..   I..   ending.    I..  all..  But.. pretending.

Rhythm Fig. 9 [acoustic guitar w/metal strings]
                                               
E#|-0---0-----0---0-------------------------------------|
B#|-1-1---1---0-0---0-----------------------------------|
G#|-0---------0-----------------------------------------|
D#|-2---------2-----------------------------------------|
A#|-3---------2-----------------------------------------|
E#|-0---------0-----------------------------------------|


Rhythm Fig. 10 [acoustic guitar w/metal strings]
                                               
E#|-0------2--------2-3-2-0---0------0------2-----------|
B#|-1------3----------------3-1------1------3-----------|
G#|-2------2------------------2------0------2-----------|
D#|-2------0------------------2------2------0-----------|
A#|-0-------------------------0------3------------------|
E#|-0-------------------------0------0------------------|
    Ooh..  hurt you,          but..  still..me.

Rhythm Fig. 11 [electric guitar w/distortion]
                                               
E#|-----------------------------------------------------|
B#|-----------------------------------------------------|
G#|-----8---------------------------------------------5-|
D#|-----8------8-----------------------3--------------5-|
A#|-----6------8---------------5-------3----------3---3-|
E#|-13\--------6------6----8--------6--1----1-1/5-------|
        take.. show.. what you mean to me

Rhythm Fig. 12 [electric guitar w/distortion]
                                               
E#|-----------------------------------------------------|
B#|-----------------------------------------------------|
G#|-5-------8-----------------------------------7-------|
D#|-5---8---8---------1---8---------------------7-------|
A#|-3---8---6-----1/3---3-8-------------5-------5-------|
E#|-----6-----------------6------6----8------6----------|
                          know.. more I need to make    
                                                
E#|-----------------------------------------------------|
B#|-----------------------------------------------------|
G#|------------------------7----------------------------|
D#|-----5----------3-2-0-2-7----------------------------|
A#|-3/5--------------------5--------------------5~------|
E#|-------------------------------------3/5-------------|
        you see.            You're everything I need.

Rhythm Fig. 13 [acoustic guitar w/metal strings]
                                               
E#|-0------2--------5----------7------------------------|
B#|-1------3----------5b-3-5-3-10b----------------------|
G#|-2------2--------------------------------5-------7---|
D#|-2------0-------------------------7------5-------7---|
A#|-0--------------------------------7------3-------5---|
E#|-0--------------------------------5------------------|
    Well.. hurt you                  but..  still.. me.

Rhythm Fig. 14 [acoustic guitar w/metal strings]
                                               
E#|-3-----3-----0--2--7--2------------------------------|
B#|-3-----3-----1--3--5--3------------------------------|
G#|-0-----0-----0--2--4--2------------------------------|
D#|-0-----0-----2--0--5--0---------12*------------------|
A#|-2-----2-----3--------------12*----------------------|
E#|-3-----3-----0---------------------------------------|


Rhythm Fig. 15 [acoustic guitar w/metal strings]
                                               
E#|-0------2--------3-------0----2--7--5--5---10--------|
B#|-0------3--------3-------1----3--5--7----7----10-----|
G#|-0------2--------0-------0----2--4--7----------------|
D#|-2------0--------0-------2----0--5--7----------------|
A#|-2---------------2-------3---------------------------|
E#|-0---------------3-------0---------------------------|
    hold.. things.. told..  come ea-si-ly
                                               
E#|-3-3-3-3-3/5-----------------------------------------|
B#|-5-5-5-5-5/7-----------------------------------------|
G#|-5-5-5-5-5/7-----------------------------------------|
D#|-5-5-5-5-5/7-----------------------------------------|
A#|-----------------------------------------------------|
E#|-----------------------------------------------------|


Rhythm Fig. 16 [acoustic guitar w/metal strings]
                                               
E#|-3-----3-----0--2--0--3------------------------------|
B#|-3-----3-----1--3--1--3------------------------------|
G#|-0-----0-----0--2--0--0------------------------------|
D#|-0-----0-----2--0--2--0------------------------------|
A#|-2-----2-----3-----3--2------------------------------|
E#|-3-----3-----0-----0--3------------------------------|


Solo. [acoustic guitar w/metal strings]
                                           
E#|---------------------------------------------------7-|
B#|--------------------------5---5-3-----------8------8-|
G#|------------------5---------------4-----5/7-7--5/7---|
D#|-5-----5---3p^2---5---3/5-----------5----------------|
A#|-5-----5--------5-3-----------------5----------------|
E#|-3-5/7-3----------------------------3----------------|

                                               
E#|-7-8-7-----------------------------------------------|
B#|-8-8-8-10-8-5/7-8------------------------------------|
G#|-------9--7-5/7-9------------------------------------|
D#|-----------------------------------------------------|
A#|-----------------------------------------------------|
E3|-----------------------------------------------------|
                    I need ya...

E#|-7---7--7--7---7---7---7~~~~~~-7---------8-----------|
B#|-10b-10-10-10b-10b-10b-10b-10r-8---------8-----5/8---|
G#|-------------------------------------5/7-5-----5/9---|
D#|-------------------------------------5/7-------------|
A#|-----------------------------------------------------|
E#|-----------------------------------------------------|


E#|---8----------------------------------------12-12----|
B#|-8---8-----12----13p^12------12\8-----------13-13----|
G#|-----------14b----------12---12\8-----10/12----------|
D#|--------------------------------------12/14----------|
A#|-----------------------------------------------------|
E#|-----------------------------------------------------|


EVERY TIME I LOOK AT YOU
(P. Stanley & B. Ezrin)


[Rhythm Fig. 1] 2x

[Rhythm Fig. 2]
Tryin' to say I'm sorry, didn't mean to break your heart
And find you waitin' up by the light of day

[Rhythm Fig. 3]
There's a lot I want to tell you, but I don't know where to start
And I don't know what I'd do if you walked away

[Rhythm Fig. 4]
Ooh, baby I tried to make it, I just got lost along the way.

[Rhythm Fig. 5] 2x
But every time I look at you, no matter what I'm goin' thru, it's easy to see.

[Rhythm Fig. 6]
And every time I hold you, the things I never told you, seem to come easily.

'Cause you're everything to me.

[Rhythm Fig. 7]

[Rhythm Fig. 8]
I never really wanted to let you get inside my heart,
I wanted to believe this would soon be ending.
I thought it wouldn't matter, if it all just came apart,
But now I realize I was just pretending.

[Rhythm Fig. 9]

[Rhythm Fig. 10]
Ooh, baby, I know I hurt you, but you can still believe in me.

[Rhythm Fig. 5] 2x
But every time I look at you, no matter what I'm goin' thru, it's easy to see.

[Rhythm Fig. 6]
And every time I hold you, the things I never told you, seem to come easily.

'Cause you're everything to me.


[Rhythm Fig. 11]
It's gonna take a little time to show you, just what you mean to me, oh yeah

[Rhythm Fig. 12]
It seems the more I get to know you, the more I need to make you see
You're everything I need, yeah

[Solo.]
Oho, I need ya, I need ya, I need ya...

[Rhythm Fig. 13]
Well baby, baby, baby, I know I hurt you, but you can still believe in me.

But every time I look at you,

[Rhythm Fig. 14]

[Rhythm Fig. 1]
no matter what I'm goin' thru, it's easy to see

[Rhythm Fig. 15]
And every time I hold you, the things I never told you, seem to come easily.


'Cause you're everything to me

[Rhythm Fig. 1]

You're everything to me, 

[Rhythm Fig. 1]

you're everything to me.

[Rhythm Fig. 16]EVERY TIME I LOOK AT YOU
Paul Stanley, Bob Ezrin

 INTRO
Eb|--3----3---3-0--0--3--5------------------------------|
Bb|--3----3---3-1--3--5--7------------------------------|
Gb|--0----0---0-2--4--5--7------------------------------|
Db|--0----0-----2--4--5--7------------------------------|
Ab|--x----x-----0-----3--5------------------------------|
Eb|--3----3---------------------------------------------| (2x)





Eb|--3-----------------3--------3-----------------------|
Bb|--3-----------------1--------1-----------------------|
Gb|--0-----------------2--------0--------0--------------|
Db|--0-----------------3--------2----0h2----------------|
Ab|--x--------------------------3-----------------------|
Eb|--3--------------------------------------------------|


                                            
Eb|--3--------2---------1--------0----------------------|
Bb|--3--------3---------1--------1----1--3--------------|
Gb|--0--------4---------2--------0----0--0--------------|
Db|--0--------4---------3--------2----2--0--------------|
Ab|--x--------2---------3--------3----3--2--------------|
Eb|--3------------------1-------------------------------|

Tryin' to say I'm sorry, didn't mean to break your heart 
And find you waitin' up by the light of day 
There's a lot I want to tell you, but I don't know where to start 
And I don't know what I'd do if you walked away 

Eb|--0-----------------2----2--2-2-3--2--0--2-----------|
Bb|--1-----------------3----3--3-3-3--3--3--3-----------|
Gb|--2-----------------2----2------2--2--2--2-----------|
Db|--2-----------------0----0------0--0--0--0-----------|
Ab|--0--------------------------------------------------|
Eb|-----------------------------------------------------|


                                         
Eb|--0-----------------0--------2-----------------------|
Bb|--1-----------------1--------3-----------------------|
Gb|--2-----------------0--------2-----------------------|
Db|--2-----------------2--------0-----------------------|
Ab|--0-----------------3--------------------------------|
Eb|-----------------------------------------------------|
Ooh, baby I tried to make it, I just got lost along the way 


Eb|--3----3---3-0--0--3--5-------5--------5-------------|
Bb|--3----3---3-1--3--5--7----------7--------5h7--------|
Gb|--0----0---0-2--4--5--7------------7----------7------|
Db|--0----0-----2--4--5--7------------------------------|
Ab|--x----x-----0-----3--5------------------------------|
Eb|--3----3---------------------------------------------|(2x)
But every time I look at you, no matter what I'm goin' thru, it's easy to see 


Eb|--0--------2---------3--------0--0--3--5-------------|
Bb|--0--------3---------3--------1--3--5--7-------------|
Gb|--0--------2---------0--------2--4--5--7-------------|
Db|--2--------0---------0--------2--4--5--7-------------|
Ab|--2------------------x--------0-----3--5-------------|
Eb|--0------------------3-------------------------------|


                                               
Eb|------5--------3-3-3-3-3/5---------------------------|
Bb|---------7-----5-5-5-5-5/7---------------------------|
Gb|-----------7---5-5-5-5-5/7---------------------------|
Db|---------------5-5-5-5-5/7---------------------------|
Ab|-----------------------------------------------------|
Eb|-----------------------------------------------------|
And every time I hold you, the things I never told you, seem to come easily 
'Cause you're everything to me 

                                                      
Eb|--3----------------3------------3--------3-----------|
Bb|--3------1p0---0---1------------3--------1-----------|
Gb|--0----0-----2---0-0--------0---0--------0--------0--|
Db|--0----------------2----0h2-----0--------2----0h2----|
Ab|--x----------------3------------x--------3-----------|
Eb|--3-----------------------------3--------------------|




Eb|--3-----------------3--------3-----------------------|
Bb|--3-----------------1--------1-----------------------|
Gb|--0-----------------2--------0--------0--------------|
Db|--0-----------------3--------2----0h2----------------|
Ab|--x--------------------------3-----------------------|
Eb|--3--------------------------------------------------|


                                            
Eb|--3--------2---------1--------0----------------------|
Bb|--3--------3---------1--------1----1--3--------------|
Gb|--0--------4---------2--------0----0--0--------------|
Db|--0--------4---------3--------2----2--0--------------|
Ab|--x--------2---------3--------3----3--2--------------|
Eb|--3------------------1-------------------------------|

I never really wanted to let you get inside my heart 
I wanted to believe this would soon be ending 
I thought it wouldn't matter, if it all just came apart 
But now I realize I was just pretending 

Eb|--0-----------------2----2--2-2-3--2--0--2-----------|
Bb|--1-----------------3----3--3-3-3--3--3--3-----------|
Gb|--2-----------------2----2------2--2--2--2-----------|
Db|--2-----------------0----0------0--0--0--0-----------|
Ab|--0--------------------------------------------------|
Eb|-----------------------------------------------------|


                                         
Eb|--0-----------------0--------2-----------------------|
Bb|--1-----------------1--------3-----------------------|
Gb|--2-----------------0--------2-----------------------|
Db|--2-----------------2--------0-----------------------|
Ab|--0-----------------3--------------------------------|
Eb|-----------------------------------------------------|
Ooh, baby, I know I hurt you, but you can still believe in me 

Eb|--3----3---3-0--0--3--5-------5--------5-------------|
Bb|--3----3---3-1--3--5--7----------7--------5h7--------|
Gb|--0----0---0-2--4--5--7------------7----------7------|
Db|--0----0-----2--4--5--7------------------------------|
Ab|--x----x-----0-----3--5------------------------------|
Eb|--3----3---------------------------------------------| (2x)
But every time I look at you, no matter what I'm goin' thru, it's easy to see 

Eb|--0--------2---------3--------0--0--0--2-------------|
Bb|--0--------3---------3--------1--3--1--3-------------|
Gb|--0--------2---------0--------2--4--0--2-------------|
Db|--2--------0---------0--------2--4--2--0-------------|
Ab|--2------------------x--------0-----3----------------|
Eb|--0------------------3-------------------------------|


                                               
Eb|------5--------3-3-3-3-3/5---------------------------|
Bb|---------7-----5-5-5-5-5/7---------------------------|
Gb|-----------7---5-5-5-5-5/7---------------------------|
Db|-----------------------------------------------------|
Ab|-----------------------------------------------------|
Eb|-----------------------------------------------------|
And every time I hold you, the things I never told you, seem to come easily 
'Cause you're everything to me 


                                               
Eb|-----------------------------------------------------|
Bb|-----------------------------------------------------|
Gb|-----------------------5-----------------------------|
Db|--3--------------------5-----------------------------|
Ab|--3--------------------3--------3--5--7--3-----------|
Eb|--1--------1--3--5-----------------------------------|


                                                
Eb|-----------------------------------------------------|
Bb|-----------------------------------------------------|
Gb|--------------------------7--------7----5------------|
Db|--5-----------------------7--------7----5------------|
Ab|--5------------5--5h7-5---5--------5----3------------|
Eb|--3--------5/7---------------------------------------|


                                               
Eb|-----------------------------------------------------|
Bb|-----------------------------------------------------|
Gb|-----------------------5-----------------------------|
Db|--3--------------------5-----------------------------|
Ab|--3--------------------3--------3--5--7--3-----------|
Eb|--1--------1--3--5-----------------------------------|


                                            
Eb|-----------------------------------------------------|
Bb|-----------------------------------------------------|
Gb|--7------7--7----------------------------------------|
Db|--7------7--7---------2------2--2--------------------|
Ab|--5------5--5---------2------2--2--------------------|
Eb|----------------------0------0--0--------------------|
It's gonna take a little time to show you, just what you mean to me, oh yeah 
It seems the more I get to know you, the more I need to make you see 
You're everything I need, yeah 



Eb|-----------------------------------------------------|
Bb|---------------------3------3------------------------|
Gb|--2------2-----------2------2------------------------|
Db|--2------2-----------0------0------------------------|
Ab|--0------0-------------------------------------------|
Eb|-----------------------------------------------------|


                                           
Eb|-----------------------------------------------------|
Bb|---------------------3--------3----------------------|
Gb|--2------2-----------2--------2----------------------|
Db|--2------2-----------0--------0----------------------|
Ab|--0------0-------------------------4-----------------|
Eb|-----------------------------------------------------|

Oho, I need ya, I need ya, I need ya... 

Eb|--0-----------------2----2--2-2-3--2--0--2-----------|
Bb|--1-----------------3----3--3-3-3--3--3--3-----------|
Gb|--2-----------------2----2------2--2--2--2-----------|
Db|--2-----------------0----0------0--0--0--0-----------|
Ab|--0--------------------------------------------------|
Eb|-----------------------------------------------------|


                                         
Eb|--0-----------------0--------2-----------------------|
Bb|--1-----------------1--------3-----------------------|
Gb|--2-----------------0--------2-----------------------|
Db|--2-----------------2--------0-----------------------|
Ab|--0-----------------3--------------------------------|
Eb|-----------------------------------------------------|


Ooh, baby, baby, baby, I know I hurt you, but you can still believe in me 
                                               
Eb|--3----3---3-0--0--3--5------------------------------|
Bb|--3----3---3-1--3--5--7------------------------------|
Gb|--0----0---0-2--4--5--7------------7*----------------|
Db|--0----0-----2--4--5--7------------7*----------------|
Ab|--x----x-----0-----3--5-------5*---------------------|
Eb|--3----3---------------------------------------------|

But every time I look at you, no matter what I'm goin' thru, it's easy to see 
Eb|--0---0-------------2--------3-----3-----0--0--3--5--|
Bb|--0------0--------3----3-----3--------3--1--3--5--7--|
Gb|--0--------0----2--------2---0--0--------2--4--5--7--|
Db|--2-----------0--------------0-----------2--4--5--7--|
Ab|--2--------------------------x-----------0-----3--5--|
Eb|--0--------------------------3-----------------------|



Eb|------5--------3-3-3-3-3/5---------------------------|
Bb|---------7-----5-5-5-5-5/7---------------------------|
Gb|-----------7---5-5-5-5-5/7---------------------------|
Db|---------------5-5-5-5-5/7---------------------------|
Ab|-----------------------------------------------------|
Eb|-----------------------------------------------------|
And every time I hold you, the things I never told you, seem to come easily 
'Cause you're everything to me 

Eb|--3----3---3-0--0--3--5------------------------------|
Bb|--3----3---3-1--3--5--7------------------------------|
Gb|--0----0---0-2--4--5--7------------------------------|
Db|--0----0-----2--4--5--7------------------------------|
Ab|--x----x-----0-----3--5------------------------------|
Eb|--3----3---------------------------------------------| (2x)
You're everything to me, you're everything to me 

Eb|--3----3----0--0--0-----3----------------------------|
Bb|--3----3----1--3--1-----3----------------------------|
Gb|--0----0----2--4--0-----0----------------------------|
Db|--0----0----2--4--2-----0----------------------------|
Ab|--x----x----0-----3-----x----------------------------|
Eb|--3----3----------------3----------------------------|    

Added On December 16th, 2013

SHARE

Comments

blog comments powered by Disqus

ADVERTISEMENT