Kisschasy Tabs

Morning

2 versions

TAB

            Morning Tab by Kisschasy


----------------------------------------------------------------------------
			    morning - kisschasy
----------------------------------------------------------------------------
Tabbed by: daniel
Email:

wats up everyone i havent seen any tabs anywhere for this song and it is a 
great acoustic song. im only 14 so i now for a fact this tab isnt perfect 
but it is a good starting point, so feel free to play around with this tab 
because in the song there are different notes that you can hear in the 
background but i couldnt find these notes.this song is in the key of FM. 

Tuning: eadgbe (standard)

intro             x3     (play this once after end of 3x)

E|3--1--------------|--3--1--5--5/6--5--1-|
B|------3-----1--3--|---------------------|
G|---------3--------|---------------------|
D|------------------|---------------------|
A|------------------|---------------------|
E|------------------|---------------------|

verse            x3      (play this once after end of 3x)

E|3--1--------------|--3--1--5--5/6--5--1-|
B|------3-----1--3--|---------------------| play through
G|---------3--------|---------------------| until chorus
D|------------------|---------------------|
A|------------------|---------------------|
E|------------------|---------------------|

well thats all ive got but i hope you can play around with it and get it 
right and ive also written down the lyrics to it as well just if you need 
them well cya later.

               

            morning lyrics

Morning, the sun wakes and when I shake off my daze
I see the one I look up to but I never told you I do.

Sweet as a honey glaze and warm as a summer day,
You are the one I look up to but I never told you.
Your bones are sore and weak but your will is as strong as concrete.
I'd give the air I breathe for you but I never told you what I'd do.    

Added On December 5th, 2013

SHARE

Comments

blog comments powered by Disqus

VERSIONS

ADVERTISEMENT