Koffin Kats Tabs

Bad Apple

1 versions

TAB

            One of the best from Drunk In The Daylight! No onoe has put this tab up anywhere yet, so 
thought i would do it first! I think this sounds pretty much right, but feel free to 
this as it is the first tab up.

Intro/Verse       (Work out where the mutes are yourself!)


E -4------------------5-5-5-5-5-5-5-5-5-5-5-5-|
A --1-2-4-----------4-7-7-7-7-7-7-7-7-7-7-7-7-|
D --------1-2-1h2p1---7-7-7-7-7-7-7-7-7-7-7-7-|
G --------------------------------------------|
B --------------------------------------------|
e --------------------------------------------|


Fill

(Bite A Little Deeper...) & (Hazard To Your Health)

E -4-0-4-0-|
A -6-2-6-2-|
D -6-2-6-2-|
G ---------|
B ---------|
e ---------|

Chorus

E -2-2-2-2-4-4-4-4-----------------|
A -4-4-4-4-6-6-6-6-2-2-2-2-4-4-4-4-|
D -4-4-4-4-6-6-6-6-4-4-4-4-6-6-6-6-|
G -----------------4-4-4-4-6-6-6-6-|
B ---------------------------------|
e ---------------------------------|

Solo

The solo is played over
Fill x1
Chorus x2


Outro

E -2-2-2-2-2-2-2-2-4-4-4-4-4-4-4-4-----------------------------0-|
A -4-4-4-4-4-4-4-4-6-6-6-6-6-6-6-6-2-2-2-2-2-2-2-2-4-4-4-2-2-1-2-|
D -4-4-4-4-4-4-4-4-6-6-6-6-6-6-6-6-4-4-4-4-4-4-4-4-6-6-6-4-4-3-2-|
G ---------------------------------4-4-4-4-4-4-4-4-6-6-6-4-4-3---|
B ---------------------------------------------------------------|
e ---------------------------------------------------------------|

STRUCTURE

Intro/Verse x4
Fill x1
Chorus x 2
Intro/Verse x4
Fill x1
Chorus x2
Solo
Fill x2
Chorus x4 (on the last time through, finish with Outro)    

Added On December 16th, 2013

SHARE

Comments

blog comments powered by Disqus

ADVERTISEMENT