Koji Kondo Tabs

Ballad Of The Goddess

1 versions

TAB

            -------------------------------------------------------------------------------
                             Ballad of The Goddess
-------------------------------------------------------------------------------
Tabbed by: JDLump

Tuning: Standard

Listen to the song for the exact timing


|------------------|
|--------------8---|
|--7------9-10-----|
|------------------|
|------------------|
|------------------|

|--8--10-----------|
|-----------8------|
|--------------9---|
|------------------|
|------------------|
|------------------|

|------------------|
|---------8--------|
|--7---------9-----|
|------------------|
|------------------|
|------------------|

|------------------|
|---------8--------|
|--7--7------9-----|
|---10-------------|
|------------------|
|------------------|

Repeat

Then play:

|------------------|
|--10----10-8------|
|-------------10---|
|------------------|
|------------------|
|------------------|


|------------------|
|-----------8------|
|--10--9---7------9|
|------------------|
|------------------|
|------------------|

|------------------|
|------------------|
|------7--7--9-----|
|--10-----------9--|
|------------------|
|------------------|

|------------------|
|------------------|
|------------------|
|--7~~~~~~~~~~~~~~~|
|------------------|
|------------------|

Repeat part but replace last bar with:

|------------------|
|------------------|
|------------------|
|--7~~~~~~~6~~~~~~~|
|------------------|
|------------------|

|--5~~~~~~~~~~~~~~~|
|------------------|
|------------------|
|------------------|
|------------------|
|------------------|

Repeat whole song & end with open D string



************************************

| ~   vibrato

************************************    

Added On December 16th, 2013

SHARE

Comments

blog comments powered by Disqus

ADVERTISEMENT