Koji Tabs

Like We Do

1 versions

TAB

            Andrew Koji Shiraki
Like We Do

CAPO II

Intro:
e:----------------------------------------------------------------------------|
B:----------------------------------------------------------------------------|
G:-----------------------0~~--------0~---------------0~----0~~~-------0~~~~~~-|
D:-5~~-7-7/9----2~~-0h2-4~~~-------0~~-----0~--0h2-0~~~--4~~-4~------0~~~~-0~-|
A:-7~~~~~~------3~~~~~~~~~~~----2h3~~~----2~~--3~~~~~~~-/5~~~~~---2h3~~~~-2~~-|
E:----------------------------3~~~~~~~--0~~~~--------------------3~~~~~~-3~~~-|

e:----------------------------------------------------------------------------|
B:----------------------------------------------------------------------------|
G:-----------------------0~~--------0~---------------0~----0~~~-------0~~-----|
D:-5~~-7-7/9----2~~-0h2-4~~~-------0~~-----0~--0h2-0~~~--4~~-4~------0~~-0~~~-|
A:-7~~~~~~------3~~~~~~~~~~~----2h3~~~----2~~--3~~~~~~~-/5~~~~~---2h3~~~-2~~~-|
E:----------------------------3~~~~~~~--0~~~~--------------------3~~~~~~-3~~~-|

Verses:
e:-0---0-----------0----0-----------|
B:-0---0---0---0---0----0---0---0---|
G:-0---0---0---0---0----0---0---0---|
D:-5---2---0---0---0h2-/4---0---0---|
A:-7---3---2---2---3---/5---2h3-2---|
E:---------3---0------------3---3---|

Chorus:
e:-3---3---3---3---3---3---3---|
B:-3---3---3---3---3---3---3---|
G:-0---0---0---0---0---0---0---|
D:-0---0---0---0---0---0h2-2---|
A:-x---3---x---3---2---3---3---|
E:-3-------3-------0-----------|

Post Chorus:
e:-3---3-----3---3-------3---3-|
B:-3---3-----3---3-------3---3-|
G:-0---0-----0---0-------0---0-|
D:-0---0h2---0---0h2p0---0---0-|
A:-x---3-----x---3-------2---x-|
E:-3---------3-----------0---2-|

Tabbed by Torrin Mauck
Enjoy!    

Added On December 16th, 2013

SHARE

Comments

blog comments powered by Disqus

ADVERTISEMENT