Korn Tabs

Blind

18 versions

TAB

            Blind Tab by Korn


Artist:Korn
  Song:Blind
Tabbed by:sepultura5000

Mail:sepultura5000@hotmail.com

I play with standar tuning   EBGDAE or DAFCGC

Intro

e|--0-0-0-0--|
B|--5-5-5-5--| Repeat this a few times
G|--3-3-3-3--| 
D|-----------|
A|-----------|
E|-----------|
   
   P.M    P.M
e|---------------|
B|---------------|
G|---------------|
D|-----10----11--|
A|-----9-----10--|
E|--0------0-----|

e|----------------------|
B|----------------------|
G|----------------------|
D|----------------------|
A|---H----H----H----H---|
E|--0-2--0-3--0-2--0-3--|

Chorus

e|-------------------------------|
B|-------------------------------|
G|-------------------------------|
D|-------------------------------|
A|---H----H----H----H------------|
E|--0-2--0-3--0-2--0-3--6-6-6-6--|

e|------------------------------|
B|------------------------------|
G|------------------------------|
D|------------------------------|
A|------------------------------|
E|--0-0-0-0-2-0-3-0-2--6-6-6-6--|

Verse

Pre-Chorus

e||--------------------|------------------||
B||--------------------|------------------||
G||-----------------8--|------------------||
D||-7--7\8--7--7\8--8--|--7\8--7--7\8--6--||
A||-7--7\8--7--7\8--6--|--7\8--7--7\8--6--||
E||-5--5\6--5--5\6-----|--5\6--5--5\6--4--||

Its a great song    

Added On December 5th, 2013

SHARE

Comments

blog comments powered by Disqus