Kotiteollisuus Tabs

Tuonelan Koivut

2 versions

TAB

            Kitara Vire: C-G-C-F-A-D - * = Dempattuna

Alku  Riff 1

D------------------------------------------------------------------------------|
A------------------------------------------------------------------------------|
F------------------------------------------------------------------------------|
C-1--x---114-112-x-0-0---114-112-1---x---114-112-x-0-0-------------------------|
G-1--x---114-112-x-0-0---114-112-1---x---114-112-x-0-0-------------------------|   2 X
C-1--x---114-112-x-0-0---114-112-1---x---114-112-x-0-0-------------------------|

Hukun tämän tien... Riff 2

D-----------------------------------------------------------------------------|
A-----------------------------------------------------------------------------|
F-----------------------------------------------------------------------------|
C-----------------------------------------------------------------------------|
G-1-1-1-1-1-1-1-1-1-1-1-1-1-1-1-1-4-4-4-4-4-4-4-4-4-4-4-4-4-4-4-4-------------|
C-1-1-1-1-1-1-1-1-1-1-1-1-1-1-1-1-4-4-4-4-4-4-4-4-4-4-4-4-4-4-4-4-------------|
  * * * * * * * * * * * * * * * * * * * * * * * * * * * * * * * *
D----------------------------------------------------------------------------|
A----------------------------------------------------------------------------|
F----------------------------------------------------------------------------|
C----------------------------------------------------------------------------|
G-3-3-3-3-3-3-3-3-3-3-3-3-3-3-3-3-8-8-8-8-8-8-8-8-8-8-8-8-8-8-8-8------------|
C-3-3-3-3-3-3-3-3-3-3-3-3-3-3-3-3-8-8-8-8-8-8-8-8-8-8-8-8-8-8-8-8------------|
  * * * * * * * * * * * * * * * * * * * * * * * * * * * * * * * *

TUO KAIKKI SAMA ILMAN DEMPPAUSTA ELI RIFFI 2 (Jotka joivat nuoruuden..)

Alku riff 1 (2x)

KERTSI Riff 3

D---------------------------------------------------------------------------|
A---------------------------------------------------------------------------|
F---------------------------------------------------------------------------|
C-5-5-5-5-5-5-5-5-5-5-5-5-5-5-5-5-0-0-0-0-0-0-0-0-0-0-0-0-0-0-0-0-----------|
G-5-5-5-5-5-5-5-5-5-5-5-5-5-5-5-5-0-0-0-0-0-0-0-0-0-0-0-0-0-0-0-0-----------|
C-5-5-5-5-5-5-5-5-5-5-5-5-5-5-5-5-0-0-0-0-0-0-0-0-0-0-0-0-0-0-0-0-----------|

D----------------------------------------------------------------------------|
A----------------------------------------------------------------------------|
F----------------------------------------------------------------------------|
C-7-7-7-7-7-7-7-7-7-7-7-7-7-7-7-10-10-10-10-10-10-10-10-10-10-10-10-10-10-10-|
G-7-7-7-7-7-7-7-7-7-7-7-7-7-7-7-10-10-10-10-10-10-10-10-10-10-10-10-10-10-10-|
C-7-7-7-7-7-7-7-7-7-7-7-7-7-7-7-10-10-10-10-10-10-10-10-10-10-10-10-10-10-10-|

2 X

Riff 2 (Ilman Demppiä 2x)

Alku eli riff 1 (2x)

Kertsi  2 X           Kuuntele kappale levyltä ensin, niin on helpompaa.    

Added On December 16th, 2013

SHARE

Comments

blog comments powered by Disqus

VERSIONS

ADVERTISEMENT