Kristofer Astrom Tabs

All Lovers Hell

1 versions

TAB

            All Lovers Hell Tab by Kristofer Astrom


capo 3

Em7:   0x003x
G:     3x0033
Asus4: x0023x
D:     xx0232
Cadd2: x32033
G/B:   x20033
G/A:   x00033
G/F#:  2x0033


Fig 1:
  Em7          G      A7sus4    D                    Dsus4
|---------------------------0-|----2---2---2----2--2h3-3-3-|
|----3---3-3-3----3-3-----3---|----3------------3--3---3-3-|
|----0---0-0-0----0-0---0-----|----2-----------------------|
|----0---0-0-0----0-0---------|-0--------0---0-------------|
|---------------------0-------|----------------------------|
|-0------------3--------------|----------------------------|


Fig 2:
  Em7          G      Asus4    D                     Dsus4
|----------------------------|----2---2---2----2-2-2h3-3-3-|
|----3---3-3-3----3-3----3-3-|----3------------3-3-3---3-3-|
|----0---0-0-0----0-0----2-2-|----2------------------------|
|----0---0-0-0----0-0----0-0-|-0--------0---0--------------|
|---------------------0------|-----------------------------|
|-0------------3-------------|-----------------------------|


Em7 G-Asus4 D Dsus4 (6x)


Em7   G       Asus4    D                        Dsus4
  I'm not the first to sleep beside you in this bed
Em7    G        Asus4     D                  Dsus4
  it's poisoned with some other idiotic guys smell
Em7   G    Asus4      D                          Dsus4
  and even though you tell me that your love for him is dead
Em7 G      Asus4   D                        Dsus4
  I always keep preparing to go through all lovers hell


Cadd2                G/B
  I've gotta start believing that you really love me
Cadd2                G/B
  I've gotta start believing that you want what's me
Cadd2                G/B
  I've gotta start believing that you really love me
Cadd2           G/B G/A      G     G/F#
  if you say so,        it's gotta be so


Em7 G Asus4 D Dsus4 (4x)


she told the news to me, a planted part of me
not to fully grow to show a way of what could be
I asked her to be true, she said I love you too
her eyes were sad and I recall somebody asked do you?

I've gotta start believing that you really love me
I've gotta start believing that you want what's me
I've gotta start believing that you really love me
if you say so, it's gotta be so


Em G Am7 (2x)
Em7 G-Asus4 D Dsus4 (4x)


I've gotta start believing that you really love me
I've gotta start believing that you want what's me
I've gotta start believing that you really love me
if you say so, it's gotta be so

I've gotta start believing that you really love me
I've gotta start believing that you want what's me
I've gotta start believing that you really love me
if you say so, it's gotta be so


Cadd2 G/B (3x)
Cadd2 G/B G/A G G/F#    

Added On December 5th, 2013

SHARE

Comments

blog comments powered by Disqus

ADVERTISEMENT