Kristofer Astrom Tabs

I Collect Knives

2 versions

TAB

            -------------------------------------------------------------------------------
			     I COLLECT KNIVES - kristofer astrom
-------------------------------------------------------------------------------
Tabbed by: cyril
Email:

Tuning: standard

he uses 5 chords throughout the song

just listen to the song to get the right timing, it's really easy

e|---------------------------------------------------------------------------|
B|---------------------------------------------------------------------------|
G|--0--0--0--0---------------------------------------------------------------|
D|--8--0--0--0--0------------------------------------------------------------|
A|--6--6--6--6--8------------------------------------------------------------|
E|-----7--8--4--6------------------------------------------------------------|


===============================================================================    

Added On December 16th, 2013

SHARE

Comments

blog comments powered by Disqus

VERSIONS

ADVERTISEMENT