Kurran And The Wolfnotes Tabs

Your Four Limbs

1 versions

TAB

            Eb|--------------------------------------------------------------------------|
Bb|--------------------------------------------------------------------------|
Gb|--------------------------------------------------------------------------|   x2
Db|---10---12---12---\7---7---7---7---7---/10---12---12---\7---7---7---7---0-|
Ab|-0----0----0----0----0---0---0---0---0-----0----0----0----0---0---0---0---|
Eb|--------------------------------------------------------------------------|

Eb|------------------------------------------------------------------|
Bb|------------------------------------------------------------------|
Gb|------------------------------------------------------------------|
Db|------------------------------------------------------------------|
Ab|---5----7---7---5---5---5---5---0---5---3---3---2---2---10---10---|
Eb|-0---0----0---0---0---0---0---0---0---0---0---0---0---0----0----0-|

Play the intro over the the first two verses,
or just play the chords.

Verse 1:
Am
Where did you get those hands?
I want a pair that only I command
Em
Where did you get those feet?
Some old drunk can walk all over me

Verse 2:
Am
Where did you get those teeth?
                                      Em
Where did you get the energy to squeeze the best of me?
                                 Am
So delicately right between your knees.

Eb|-3-------3--------------------------------------------------------|
Bb|---1-0-1---1-0-1----etc.------------------------------------------|
Gb|------------------------------------------------------------------|
Db|------------------------------------------------------------------|
Ab|------------------------------------------------------------------|
Eb|------------------------------------------------------------------|

Play the above over this chorus over and over, or just the play the chords.

Chorus:
Am
   And did you feel the burn, did you baby?     |
                                      Em        | x2
Did you feel the burn as you take your time?    |
As it turns to dust in the blink of an eye.     |

Am G Am G Em G Em G

Am                         G
   Where did you get those eyes?
Am                                         G   Em
   Cause they're the ones that are keeping me alive.
                             G
Where did you get those ears?
         Em                  G                   Am
Cause i'm dying to hear, i'm dying to hear their hiss
                            G
Where did you get those lips?
Am                               G
   I need a set that can set for words to grip
Em                               G
   Where did you get those knees?
    Em                      G
That hit the floor and bring out the best in me

Chorus:
Am
And did you feel the burn, did you baby?        |
                                      Em        | x2
Did you feel the burn as you take your time?    |
As it turns to ash in the blink of an eye.      |

Bridge:
C
  And how I long for your four limbs
                               Em
and long to sleep amongst their bends
                        G
And how I love to assist the burning that rushes to your hips

Play the intro over this last chorus, or, again, just play the chords.

Am
   And did you feel the burn, did you baby?
                                      Em
Did you feel the burn as you take your time?
                                       Am
As it turns to dust in the blink of an eye.    

Added On June 23rd, 2014

SHARE

Comments

blog comments powered by Disqus

ADVERTISEMENT