Kurt Nilsen Tabs

My Street

2 versions

TAB

            My Street Tab by Kurt Nilsen


Kurt Nilsen - My Street

Intro:

--0-0-0-----0-0-0-----|
--0-0-0-----0-0-0-----|
--6-6-6-----7-7-7-----|
--8-8-8-----9-9-9-----|  x2
--x-x-x-----x-x-x-----|
--x-x-x-----x-x-x-----|

Verse:

--0-0-0-----0-0-0-----0-0-0-----0-0-0-----|
--0-0-0-----0-0-0-----0-0-0-----0-0-0-----|
--6-6-6-----7-7-7-----4-4-4-----4-4-4-----|
--8-8-8-----9-9-9-----2-2-2-----1-1-1-----|
--x-x-x-----x-x-x-----x-x-x-----x-x-x-----|
--x-x-x-----x-x-x-----x-x-x-----x-x-x-----|

Chours:

--0-0-0-----0-0-0-----0-0-0-----0-0-0-----|
--0-0-0-----0-0-0-----0-0-0-----0-0-0-----|
--6-6-6-----7-7-7-----4-4-4-----4-4-4-----|
--8-8-8-----9-9-9-----2-2-2-----1-1-1-----|
--x-x-x-----x-x-x-----x-x-x-----x-x-x-----|
--x-x-x-----x-x-x-----x-x-x-----x-x-x-----|

Not 100% sure about the chours because the piano part comes in, but it sounds god to me. 
on your own.


Tabbed by Gelbisto...    

Added On December 5th, 2013

SHARE

Comments

blog comments powered by Disqus

VERSIONS

ADVERTISEMENT