Kurt Vile Tabs

In My Time

1 versions

TAB

            -------------------------------------------------------------------------------
                             In my time - Kurt Vile
-------------------------------------------------------------------------------
Tabbed by: simooon


e|----5----5----3----3-------------------------------------------------------|
B|----3----3----1----1-------------------------------------------------------|
G|----4----0----2----0-------------------------------------------------------|
D|----5----4----3----2-------------------------------------------------------|
A|----x----x----x----x-------------------------------------------------------|
E|----x----x----x----x-------------------------------------------------------|

e|----3----0----3----0-------------------------------------------------------|
B|----1----1----1----1-------------------------------------------------------|
G|----3----2----3----2-------------------------------------------------------|
D|----0----3----0----3-------------------------------------------------------|
A|----x----x----x----x-------------------------------------------------------|
E|----x----x----x----x-------------------------------------------------------|

e|----0----0----0----0-------------------------------------------------------|
B|----0----0----0----0-------------------------------------------------------|
G|----0----0----0----0-------------------------------------------------------|
D|----2----2----4----2-------------------------------------------------------|
A|----2----3----5----3-------------------------------------------------------|
E|----0----x----x----x-------------------------------------------------------|

I think he plays it this way using a capo on the 1st fret.
I couldn't figure out the instrumental / distorted part, but anyway I had fun playing 
these chords.

cheers!    

Added On December 16th, 2013

SHARE

Comments

blog comments powered by Disqus

ADVERTISEMENT