L7 Tabs

Shove

2 versions

TAB

            Artist: L7
Song: Shove
Album: Smell The Magic
Tabbed by: Martina

INTRO
e|------------------------------------------------------|
B|------------------------------------------------------|
G|------------------------------------------------------|
D|--5/7-7--5/7\5----------------------------------------|
A|---------------7-7--5/7-7-5/7-5--5/7\5----------------|
E|---------------------------------------7-5------------|

e|------------------------------------------------------|
B|------------------------------------------------------|
G|------------------------------------------------------|
D|--5/7-7--5/7\5-------------------------------5/7-7-7--|
A|---------------7-7--5/7-7--5/7-7--5/7\5---------------|
E|----------------------------------------7-5-----------|

e|------------------------------------------------------|
B|------------------------------------------------------|
G|--5/7-/9-9--9/10-9--9/10-9--9/10\9-/7-5---------------|
D|-----------------------------------------5/7-7--5/7\5-|
A|------------------------------------------------------|
E|------------------------------------------------------|

e|------------------------------------------------------|
B|------------------------------------------------------|
G|------------------------------------------------------|
D|------------------------------------------------------|
A|--7-7--5/7-7--5/7\5-----------------------------------|
E|--------------------7-5-------------------------------|

VERSE
(x12)
e|------------------------------------------------------|
B|------------------------------------------------------|
G|--------------7/9-9-9-9-9-----------------------------|
D|--5/7-7-7-7-7-7/9-9-9-9-9-9/10-10-10-10-10-5/7-7-7-7-7|
A|--5/7-7-7-7-7-5/7-7-7-7-7-9/10-10-10-10-10-5/7-7-7-7-7|
E|--3/5-5-5-5-5-------------7/8--8--8--8--8--3/5-5-5-5-5|

BRIDGE
e|------------------------------------------------------|
B|------------------------------------------------------|
G|------------------------------------------------------|
D|--2-2-2-2-2-2-2-2-2-2-3--4-4-4-4-4-4-4-4-4-4-5--------|
A|--2-2-2-2-2-2-2-2-2-2-3--4-4-4-4-4-4-4-4-4-4-5--------|
E|--0-0-0-0-0-0-0-0-0-0-1--2-2-2-2-2-2-2-2-2-2-3--------|

SOLO
BRIDGE
VERSE (x6)

(x2)
e|------------------------------------------------------| 
B|------------------------------------------------------| 
G|------7/9---------------------------------------------| 
D|--5/7-7/9-9/10-5/7------------------------------------| 
A|--5/7-5/7-9/10-5/7------------------------------------| 
E|--3/5-----7/8--3/5------------------------------------|

VERSE (x6)

End with INTRO    

Added On December 16th, 2013

SHARE

Comments

blog comments powered by Disqus

VERSIONS

ADVERTISEMENT