Lacuna Coil Tabs

Game

2 versions

TAB

            Game Tab by Lacuna Coil


Im sure this is correct but there may be parts needing changed otherwise its all good:)

-------------------------------------------------------------------------------
			     The Game - Lacuna Coil
-------------------------------------------------------------------------------
Tabbed by:Joey Egan
Email:Slipknot_15@Hotmail.co.uk

Key: p=pinch harmonic
     pm=palm mute

Tuning:BF#BEG#C#

  INTRO
C|---------------------------------------------------------------------------|
G|---------------------------------------------------------------------------|
E|---------------------------------------------------------------------------|
B|--------9999--------6666--------9999--------6666---------------------------|
F|57575757----57575757----57575757----57575757-------------------------------|
B|---------------------------------------------------------------------------|

C|---------------------------------------------------------------------------|
G|---------------------------------------------------------------------------|
E|---------------------------------------------------------------------------|
B|2---8---0---2---2---0---8---2------------9999------------------------------|
F|2---8---0---2---2---0---8---2----75757575----------------------------------|
B|2---8---0---2---2---0---8---2----------------------------------------------|

  VERSE
C|---------------------------------------------------------------------------|
G|---------------------------------------------------------------------------|
E|---------------------------------------------------------------------------|
B|222200000088882222---222200000088882222---222200000088882222---------------|
F|222200000088882222---222200000088882222---222200000088882222---------------|
B|222200000088882222-2-222200000088882222-2-222200000088882222-2-------------|
  pm................ p pm................ p pm................ p

C|---------------------------------------------------------------------------|
G|---------------------------------------------------------------------------|
E|---------------------------------------------------------------------------|
B|222200000088882222---------------------------------------------------------|
F|222200000088882222---------------------------------------------------------|
B|222200000088882222-2-------------------------------------------------------|
  pm................ p

  CHORUS
C|---------------------------------------------------------------------------|
G|---------------------------------------------------------------------------|
E|---------------------------------------------------------------------------|
B|2---8---0---2---2---0---8---2---2---8---0---2---2---0---8---2--------------|
F|2---8---0---2---2---0---8---2---2---8---0---2---2---0---8---2--------------|
B|2---8---0---2---2---0---8---2---2---8---0---2---2---0---8---2--------------|

  VERSE
C|---------------------------------------------------------------------------|
G|---------------------------------------------------------------------------|
E|---------------------------------------------------------------------------|
B|222200000088882222---222200000088882222---222200000088882222---------------|
F|222200000088882222---222200000088882222---222200000088882222---------------|
B|222200000088882222-2-222200000088882222-2-222200000088882222-2-------------|
  pm................ p pm................ p pm................ p

C|---------------------------------------------------------------------------|
G|---------------------------------------------------------------------------|
E|---------------------------------------------------------------------------|
B|222200000088882222---------------------------------------------------------|
F|222200000088882222---------------------------------------------------------|
B|222200000088882222-2-------------------------------------------------------|
  pm................ p

   CHORUS
C|---------------------------------------------------------------------------|
G|---------------------------------------------------------------------------|
E|---------------------------------------------------------------------------|
B|2---8---0---2---2---0---8---2---2---8---0---2---2---0---8---2--------------|
F|2---8---0---2---2---0---8---2---2---8---0---2---2---0---8---2--------------|
B|2---8---0---2---2---0---8---2---2---8---0---2---2---0---8---2--------------|

  Sorry no solo yet but working on it!

  CHORUS
C|---------------------------------------------------------------------------|
G|---------------------------------------------------------------------------|
E|---------------------------------------------------------------------------|
B|2---8---0---2---2---0---8---2---2---8---0---2---2---0---8---2--------------|
F|2---8---0---2---2---0---8---2---2---8---0---2---2---0---8---2--------------|
B|2---8---0---2---2---0---8---2---2---8---0---2---2---0---8---2--------------|

  OUTRO
C|------------------------------------------------|
G|------------------------------------------------|
E|------------------------------------------------|repeat as required.
B|--------9999--------6666--------9999--------6666|
F|57575757----57575757----57575757----57575757----|
B|------------------------------------------------|    

Added On December 5th, 2013

SHARE

Comments

blog comments powered by Disqus

VERSIONS

ADVERTISEMENT