Lagwagon Tabs

Love Story

1 versions

TAB

            Love Story Chords by Lagwagon

Lagwagon
Love Story

Intro: (Acoustic)
e|--------------------|
b|-1-0-1-------3-1-0--|
g|-2-2-2-------2-2-2--|
d|-2-2-2-------2-2-2--|
a|-0-0-0-------0-0-0--|x3
e|--------------------|

Verse:
C5
C5
e |---|---|---|---|---|
B |---|---|---|---|---|
G |---|---|---|---|-x-|
D |---|---|---|---|-x-|
A |---|---|-x-|---|---|
E |---|---|---|---|---|
B/C Am
Am
e |---|---|---|---|---|
B |-x-|---|---|---|---|
G |---|-x-|---|---|---|
D |---|-x-|---|---|---|
A |---|---|---|---|---|
E |---|---|---|---|---|
maybe it's not funny but it's true G5
G5
e |---|---|---|---|---|
B |---|---|---|---|---|
G |---|---|---|---|---|
D |---|---|---|---|-x-|
A |---|---|---|---|-x-|
E |---|---|-x-|---|---|
F
F
e |-x-|---|---|---|---|
B |-x-|---|---|---|---|
G |---|-x-|---|---|---|
D |---|---|-x-|---|---|
A |---|---|-x-|---|---|
E |-x-|---|---|---|---|
no one here's surprised but you C5
C5
e |---|---|---|---|---|
B |---|---|---|---|---|
G |---|---|---|---|-x-|
D |---|---|---|---|-x-|
A |---|---|-x-|---|---|
E |---|---|---|---|---|
B/C Am
Am
e |---|---|---|---|---|
B |-x-|---|---|---|---|
G |---|-x-|---|---|---|
D |---|-x-|---|---|---|
A |---|---|---|---|---|
E |---|---|---|---|---|
embellish it, the truth is you're a slave G5
G5
e |---|---|---|---|---|
B |---|---|---|---|---|
G |---|---|---|---|---|
D |---|---|---|---|-x-|
A |---|---|---|---|-x-|
E |---|---|-x-|---|---|
F
F
e |-x-|---|---|---|---|
B |-x-|---|---|---|---|
G |---|-x-|---|---|---|
D |---|---|-x-|---|---|
A |---|---|-x-|---|---|
E |-x-|---|---|---|---|
addicted to it's escalating and your love Chorus: C5
C5
e |---|---|---|---|---|
B |---|---|---|---|---|
G |---|---|---|---|-x-|
D |---|---|---|---|-x-|
A |---|---|-x-|---|---|
E |---|---|---|---|---|
story's B/C G5
G5
e |---|---|---|---|---|
B |---|---|---|---|---|
G |---|---|---|---|---|
D |---|---|---|---|-x-|
A |---|---|---|---|-x-|
E |---|---|-x-|---|---|
F
F
e |-x-|---|---|---|---|
B |-x-|---|---|---|---|
G |---|-x-|---|---|---|
D |---|---|-x-|---|---|
A |---|---|-x-|---|---|
E |-x-|---|---|---|---|
G5
G5
e |---|---|---|---|---|
B |---|---|---|---|---|
G |---|---|---|---|---|
D |---|---|---|---|-x-|
A |---|---|---|---|-x-|
E |---|---|-x-|---|---|
bad drama makes you livid and the nervous always laugh C5
C5
e |---|---|---|---|---|
B |---|---|---|---|---|
G |---|---|---|---|-x-|
D |---|---|---|---|-x-|
A |---|---|-x-|---|---|
E |---|---|---|---|---|
Bdim
Bdim
e |---|---|---|---|---|
B |---|---|---|---|---|
G |-x-|---|---|---|---|
D |---|---|---|---|---|
A |---|-x-|---|---|---|
E |-x-|---|---|---|---|
or B/C i'm fresh out of advice Am
Am
e |---|---|---|---|---|
B |-x-|---|---|---|---|
G |---|-x-|---|---|---|
D |---|-x-|---|---|---|
A |---|---|---|---|---|
E |---|---|---|---|---|
G5
G5
e |---|---|---|---|---|
B |---|---|---|---|---|
G |---|---|---|---|---|
D |---|---|---|---|-x-|
A |---|---|---|---|-x-|
E |---|---|-x-|---|---|
F
F
e |-x-|---|---|---|---|
B |-x-|---|---|---|---|
G |---|-x-|---|---|---|
D |---|---|-x-|---|---|
A |---|---|-x-|---|---|
E |-x-|---|---|---|---|
and sick of standing in this harms way Verse 2: C5
C5
e |---|---|---|---|---|
B |---|---|---|---|---|
G |---|---|---|---|-x-|
D |---|---|---|---|-x-|
A |---|---|-x-|---|---|
E |---|---|---|---|---|
B/C Am
Am
e |---|---|---|---|---|
B |-x-|---|---|---|---|
G |---|-x-|---|---|---|
D |---|-x-|---|---|---|
A |---|---|---|---|---|
E |---|---|---|---|---|
interstate in debate an impasse G5
G5
e |---|---|---|---|---|
B |---|---|---|---|---|
G |---|---|---|---|---|
D |---|---|---|---|-x-|
A |---|---|---|---|-x-|
E |---|---|-x-|---|---|
F
F
e |-x-|---|---|---|---|
B |-x-|---|---|---|---|
G |---|-x-|---|---|---|
D |---|---|-x-|---|---|
A |---|---|-x-|---|---|
E |-x-|---|---|---|---|
driving out the hope and gas C5
C5
e |---|---|---|---|---|
B |---|---|---|---|---|
G |---|---|---|---|-x-|
D |---|---|---|---|-x-|
A |---|---|-x-|---|---|
E |---|---|---|---|---|
B/C Am
Am
e |---|---|---|---|---|
B |-x-|---|---|---|---|
G |---|-x-|---|---|---|
D |---|-x-|---|---|---|
A |---|---|---|---|---|
E |---|---|---|---|---|
arriving at the same mute conclusion G5
G5
e |---|---|---|---|---|
B |---|---|---|---|---|
G |---|---|---|---|---|
D |---|---|---|---|-x-|
A |---|---|---|---|-x-|
E |---|---|-x-|---|---|
F
F
e |-x-|---|---|---|---|
B |-x-|---|---|---|---|
G |---|-x-|---|---|---|
D |---|---|-x-|---|---|
A |---|---|-x-|---|---|
E |-x-|---|---|---|---|
this destination failure this is going, going Chorus 2: C5
C5
e |---|---|---|---|---|
B |---|---|---|---|---|
G |---|---|---|---|-x-|
D |---|---|---|---|-x-|
A |---|---|-x-|---|---|
E |---|---|---|---|---|
B/C G5
G5
e |---|---|---|---|---|
B |---|---|---|---|---|
G |---|---|---|---|---|
D |---|---|---|---|-x-|
A |---|---|---|---|-x-|
E |---|---|-x-|---|---|
F
F
e |-x-|---|---|---|---|
B |-x-|---|---|---|---|
G |---|-x-|---|---|---|
D |---|---|-x-|---|---|
A |---|---|-x-|---|---|
E |-x-|---|---|---|---|
G5
G5
e |---|---|---|---|---|
B |---|---|---|---|---|
G |---|---|---|---|---|
D |---|---|---|---|-x-|
A |---|---|---|---|-x-|
E |---|---|-x-|---|---|
nowhere, slow, drama is exhausting and i'd rather be alone C5
C5
e |---|---|---|---|---|
B |---|---|---|---|---|
G |---|---|---|---|-x-|
D |---|---|---|---|-x-|
A |---|---|-x-|---|---|
E |---|---|---|---|---|
Bdim
Bdim
e |---|---|---|---|---|
B |---|---|---|---|---|
G |-x-|---|---|---|---|
D |---|---|---|---|---|
A |---|-x-|---|---|---|
E |-x-|---|---|---|---|
or B/C i want better friends G5
G5
e |---|---|---|---|---|
B |---|---|---|---|---|
G |---|---|---|---|---|
D |---|---|---|---|-x-|
A |---|---|---|---|-x-|
E |---|---|-x-|---|---|
i'm sick of giving into harms way, and so are they Intro (with slight varitaion) e|----------------------------------------------- b|-1-0-1---3-1-0---1-0-1---3-1-0---1-0-1---1-0-1- g|-2-2-2---2-2-2---2-2-2---2-2-2---2-2-2---2-2-2- d|-2-2-2---2-2-2---2-2-2---2-2-2---2-2-2---2-2-2- a|-0-0-0---0-0-0---0-0-0---0-0-0---0-0-0---0-0-0- e|------------------------------------------------ Bridge: Am
Am
e |---|---|---|---|---|
B |-x-|---|---|---|---|
G |---|-x-|---|---|---|
D |---|-x-|---|---|---|
A |---|---|---|---|---|
E |---|---|---|---|---|
F
F
e |-x-|---|---|---|---|
B |-x-|---|---|---|---|
G |---|-x-|---|---|---|
D |---|---|-x-|---|---|
A |---|---|-x-|---|---|
E |-x-|---|---|---|---|
C
C
e |---|---|-x-|---|---|
B |-x-|---|---|---|---|
G |---|---|---|---|---|
D |---|-x-|---|---|---|
A |---|---|-x-|---|---|
E |---|---|---|---|---|
G5
G5
e |---|---|---|---|---|
B |---|---|---|---|---|
G |---|---|---|---|---|
D |---|---|---|---|-x-|
A |---|---|---|---|-x-|
E |---|---|-x-|---|---|
sick of being around something that's destined to fail Am
Am
e |---|---|---|---|---|
B |-x-|---|---|---|---|
G |---|-x-|---|---|---|
D |---|-x-|---|---|---|
A |---|---|---|---|---|
E |---|---|---|---|---|
F
F
e |-x-|---|---|---|---|
B |-x-|---|---|---|---|
G |---|-x-|---|---|---|
D |---|---|-x-|---|---|
A |---|---|-x-|---|---|
E |-x-|---|---|---|---|
G5
G5
e |---|---|---|---|---|
B |---|---|---|---|---|
G |---|---|---|---|---|
D |---|---|---|---|-x-|
A |---|---|---|---|-x-|
E |---|---|-x-|---|---|
and the sum of its parts can not see, they make me A5
A5
e |---|---|---|---|---|
B |---|---|---|---|---|
G |---|-x-|---|---|---|
D |---|-x-|---|---|---|
A |---|---|---|---|---|
E |---|---|---|---|---|
D5
D5
e |---|---|---|---|---|
B |---|---|-x-|---|---|
G |---|-x-|---|---|---|
D |---|---|---|---|---|
A |---|---|---|---|---|
E |---|---|---|---|---|
hate life, A5
A5
e |---|---|---|---|---|
B |---|---|---|---|---|
G |---|-x-|---|---|---|
D |---|-x-|---|---|---|
A |---|---|---|---|---|
E |---|---|---|---|---|
D5
D5
e |---|---|---|---|---|
B |---|---|-x-|---|---|
G |---|-x-|---|---|---|
D |---|---|---|---|---|
A |---|---|---|---|---|
E |---|---|---|---|---|
hate friends, A5
A5
e |---|---|---|---|---|
B |---|---|---|---|---|
G |---|-x-|---|---|---|
D |---|-x-|---|---|---|
A |---|---|---|---|---|
E |---|---|---|---|---|
D5
D5
e |---|---|---|---|---|
B |---|---|-x-|---|---|
G |---|-x-|---|---|---|
D |---|---|---|---|---|
A |---|---|---|---|---|
E |---|---|---|---|---|
hate being there Last Verse: C5
C5
e |---|---|---|---|---|
B |---|---|---|---|---|
G |---|---|---|---|-x-|
D |---|---|---|---|-x-|
A |---|---|-x-|---|---|
E |---|---|---|---|---|
B/C Am
Am
e |---|---|---|---|---|
B |-x-|---|---|---|---|
G |---|-x-|---|---|---|
D |---|-x-|---|---|---|
A |---|---|---|---|---|
E |---|---|---|---|---|
i know that it's not funny but it's true G5
G5
e |---|---|---|---|---|
B |---|---|---|---|---|
G |---|---|---|---|---|
D |---|---|---|---|-x-|
A |---|---|---|---|-x-|
E |---|---|-x-|---|---|
F
F
e |-x-|---|---|---|---|
B |-x-|---|---|---|---|
G |---|-x-|---|---|---|
D |---|---|-x-|---|---|
A |---|---|-x-|---|---|
E |-x-|---|---|---|---|
no one gives a shit but you C5
C5
e |---|---|---|---|---|
B |---|---|---|---|---|
G |---|---|---|---|-x-|
D |---|---|---|---|-x-|
A |---|---|-x-|---|---|
E |---|---|---|---|---|
B/C Am
Am
e |---|---|---|---|---|
B |-x-|---|---|---|---|
G |---|-x-|---|---|---|
D |---|-x-|---|---|---|
A |---|---|---|---|---|
E |---|---|---|---|---|
maybe i'll just swallow all these thoughts G5
G5
e |---|---|---|---|---|
B |---|---|---|---|---|
G |---|---|---|---|---|
D |---|---|---|---|-x-|
A |---|---|---|---|-x-|
E |---|---|-x-|---|---|
F
F
e |-x-|---|---|---|---|
B |-x-|---|---|---|---|
G |---|-x-|---|---|---|
D |---|---|-x-|---|---|
A |---|---|-x-|---|---|
E |-x-|---|---|---|---|
maybe someday you'll stop anthony curtis

Added On December 5th, 2013

SHARE

Comments

blog comments powered by Disqus

ADVERTISEMENT