Lamb of God Tabs

ODHGABFE

2 versions

TAB

            / Lamb Of God / New American Gospel (2000) / O.D.H.G.A.B.F.E. guitar tab

Tuning: Drop D (D A D G B E)

Intro:

E|------------------------------------------------||X7
B|------------------------------------------------||
G|------------------------------------------------||
D|------------------------------------------------||
A|-----5-6~~~----------0-3-0----------------------||
D|-0--0-0-------0-3-5-6-----6-5-3-----------------||

Riff 1:

E|------------------------------------------------||
B|------------------------------------------------||
G|------------------------------------------------||
D|------------------------------------------------||
A|-----5-3~-6-5-5555-5--3333-3--11-0--------------||
D|-0--0-0---6-5-5555-5--3333-3--11-0--------------||

Intro X3

Riff 1
E|------------------------------------------------||
B|------------------------------------------------||
G|------------------------------------------------||
D|------------------------------------------------||
A|-----5-3~-6-5-5555-5--3333-3--11-0--------------||
D|-0--0-0---6-5-5555-5--3333-3--11-0--------------||

Intro X3

Riff 1 X5

repeat this about 4 times
E|------------------------------------------------||
B|------------------------------------------------||
G|------------------------------------------------||
D|------------------------------------------------||
A|-0-0-0-0--00000000-0----------------------------||
D|-0x0x0x0--00000000-0----------------------------||

then after that it goes into this
E|------------------------------------------------||
B|------------------------------------------------||
G|------------------------------------------------||
D|------------------------------------------------||
A|---------------0-0------------------------------||
D|-1/8~~--1/7~~--0-0------------------------------||

repeat this 4 times...............then
E|--------------------------------||-------------------------------|
B|--------------------------------||-------------------------------|
G|--------------------------------||-------------------------------|
D|--------------------------------||-------------------------------|
A|-0-0-0-0-00000000-0-------------||--------------0-0--------------|
D|-0x0x0x0-00000000-0-------------||-1/8~~-1/7~~--0-0--------------|    

Added On December 16th, 2013

SHARE

Comments

blog comments powered by Disqus

VERSIONS

ADVERTISEMENT