Lawrence Arms Tabs

Cut It Up

1 versions

TAB

            Cut It Up Tab by Lawrence Arms


The Lawrence Arms - Cut It Up

Tabbed by Max Guhlke (Max.Guhlke@web.de)
These are the single parts of this song
just put this tab together with a nice guitar and a part of your
brain and you´ll have a damn good song of Lawrence Arms´ new Album
KEEP ON ROCKING !


E|----------|-------------|-------|-------|-----------x---|-------|
B|----------|-------------|-------|-------|-------x---x---|-------|
G|-6/-------|-6-4-2-4-2-4-|-6-4-2-|-6-9-2-|-6-x-2-x-4-x-2-|-6-4-2-|
D|-6/-64646-|-6-4-2-4-2-4-|-6-4-2-|-6-9-2-|-6-x-2-x-4---2-|-6-4-2-|
A|-4/-64646-|-4-2-0-2-0-2-|-4-2-0-|-4-7-0-|-4-x-0---2---0-|-4-2-0-|
E|-4/-42424-|-------------|-------|-------|---------------|-------|

E|----------|-0---4---|-------|------------|
B|----------|-0---5---|-------|------------|
G|-6/-------|-1-4-6-2-|-6-4-2-|-6-4-2-4-6/-|
D|-6/-64646-|-2-4-6-2-|-6-4-2-|-6-4-2-4-6/-|
A|-4/-64646-|-2-2-4-0-|-4-2-0-|-4-2-0-2-4/-|
E|-4/-42424-|-0-------|-------|---------4/-|

That´s all ! Pretty easy stuff !    

Added On December 5th, 2013

SHARE

Comments

blog comments powered by Disqus

ADVERTISEMENT