Left Lane Cruiser Tabs

Mr Johnson

1 versions

TAB

            Link: 

Main riff:
e---------------------------------------------------------------------------|
b---------------------------------------------------------------------------|
g---------------------------------------------------------------------------|
d----------3-------------5-3-----------3------------------------------------|
a--0h3h5-0---5p3p0-0h3h5-5-3---0h3h5-0---5p3p0-0h3h5-3h5p3p0----------------|
e------------------------5-3---------------------------------3~-------------|

Chorus:
e---------------------------------------------------------------------------|
b---------------------------------------------------------------------------|
g---------------------------------------------------------------------------|
d--5-7-5-7-5-7-5-7-5/10-10--3-5-3-5-3-5-3-5-3-0-0--5-7-5-7-5-7-5-7-5/10-10--|
a--5-7-5-7-5-7-5-7-5/10-10--3-5-3-5-3-5-3-5-3-0-0--5-7-5-7-5-7-5-7-5/10-10--|
e--5-7-5-7-5-7-5-7-5/10-10--3-5-3-5-3-5-3-5-3-0-0--5-7-5-7-5-7-5-7-5/10-10--|    

Added On December 16th, 2013

SHARE

Comments

blog comments powered by Disqus

ADVERTISEMENT