Less Than Jake Tabs

Last Hour Of The Last Day Of Work

3 versions

TAB

            Last Hour Of The Last Day Of Work Tab by Less Than Jake


this is only guitar 1 and i think this is %100 correct

Intro
E-----------------------------------------------------------------------------
B-----------------------------------------------------------------------------
G-66-6-6-66-6---66-6-6-66-6---------------------------------------------------
A-64-4-4-44-4---44-4-4-44-4---------------------------------------------------
D-44-4-4-44-4---44-4-4-44-4---44-4-4-44-4---44-4-4-44-4-----------------------
E-----------------------------11-1-1-11-1---22-2-2-22-2-----------------------

Verse
E-----------------------------------------------------------------------------
B-----------------------------------------------------------------------------
G-----------------------------------------------------------------------------
A-P.M------------------stop P.M-----------------------------------------------
D-6-6-6-6-6-6-6-6-6-6-6-6-6-6-6-----------------------------------------------
E-4-4-4-4-4-4-4-4-4-4-4-4-4-4-4-----------------------------------------------

Chorus
E-----------------------------------------------------------------------------
B-----------------------------------------------------------------------------
G-6--6--------8--8---------6--6--------------------6--6--------8--8-----------
A-6--6-6-66-6-8--8-4-44-4--6--6-6-66-6-8--8-4-44-4-6--6-6-66-6-8--8-4-44-4----
D-4--4-6-66-6-6--6-4-44-4--4--4-6-66-6-8--8-4-44-4-4--4-6-66-6-6--6-4-44-4----
E------4-44-4------2-22-2-------4-44-4-6--6-2-22-2------4-44-4------2-22-2----

E-----------------------------------------------------------------------------
B-----------------------------------------------------------------------------
G-------------8--8----------------------------------------------------------
A-8--8-4-44-4-8--8-6-66-6---------------------------------------------------
D-8--8-4-44-4-6--6-6-66-6---------------------------------------------------
E-6--6-2-22-2------4-44-4-----------------------------------------------------

Just Before Solo
E-----------------------------------------------------------------------------
B-----------------------------------------------------------------------------
G-6---------------------------------------------------------------------------
A-6---let ring----------------------------------------------------------------
D-4---------------------------------------------------------------------------
E-----------------------------------------------------------------------------

End on this
E-----------------------------------------------------------------------------
B-----------------------------------------------------------------------------
G-------8-------6-------------------------------------------------------------
A-8-----8---6---6-------------------------------------------------------------
D-8-----6---6---4-------------------------------------------------------------
E-6---------4-----------------------------------------------------------------

Order of Song
Intro     x4
Verse     x1
Chorus    x1
Intro     x1
Verse     x1
Chorus    x1
Solo      x1
Chorus    x2    

Added On December 5th, 2013

SHARE

Comments

blog comments powered by Disqus