Level 70 Elite Tauren Chieftan Tabs

I Am Murloc

4 versions

TAB

            -------------------------------------------------------------------------------
			     I AM MURLOC - L70ETC
-------------------------------------------------------------------------------
Tabbed by: Not me, i'm just putting it online.
Email: andioge@gmail.com

Tuning: Standard

Intro
Let all non palm-muted notes ring
                                h                                 h
e|-----------------------------------------------------------------------------|
B|-----------------------------------------------------------------------------|
G|-----------------------------------------------------------------------------|
D|-----2-----0-----3-----2-----02--------2-----0-----3-----2-----02------------|
A|-----------------------------------------------------------------------------|
E|-0-0-----0-----0-----0-----0-------3-3-----3-----3-----3-----3---------------|
  |---|   |-|   |-|   |-|   |-|     |---|   |-|   |-|   |-|   |----------------|
   PM     PM    PM    PM    PM       PM     PM    PM    PM    PM

                                h                                 h
e|-----------------------------------------------------------------------------|
B|-----------------------------------------------------------------------------|
G|-----------------------------------------------------------------------------|
D|-----2-----0-----3-----2-----02--------2-----0-------------------------------|
A|-0-0-----0-----0-----0-----0-----------------------3-----2-------------------|
E|-----------------------------------0-0-----0-----0-----0-----0--3~~~---------|
  |---|   |-|   |-|   |-|   |-|     |---|   |-|   |-|   |-|   |----------------|
   PM     PM    PM    PM    PM       PM     PM    PM    PM    PM

                                h                                 h
e|-----------------------------------------------------------------------------|
B|-----------------------------------------------------------------------------|
G|-----------------------------------------------------------------------------|
D|-----2-----0-----3-----2-----02--------2-----0-----3-----2-----02------------|
A|-----------------------------------------------------------------------------|
E|-0-0---0-0---0-0---0-0---0-0-------3-3---3-3---3-3---3-3---3-3---------------|
  |---| |---| |---| |---| |---|     |---| |---| |---| |---| |------------------|
   PM     PM    PM    PM    PM       PM     PM    PM    PM    PM

                                h                                 h
e|-----------------------------------------------------------------------------|
B|-----------------------------------------------------------------------------|
G|-----------------------------------------------------------------------------|
D|-----2-----0-----3-----2-----02--------2-----0-------------------------------|
A|-0-0---0-0---0-0---0-0---0-0-----------------------3-----2-------------------|
E|-----------------------------------0-0---0-0---0-0---0-0---0-0--3~~~---------|
  |---| |---| |---| |---| |---|     |---| |---| |---| |---| |------------------|
   PM     PM    PM    PM    PM       PM     PM    PM    PM    PM

______________________________________________________________________________

Verse (starts with words)
let non palm-muted notes ring
                                h                                 h
e|-----------------------------------------------------------------------------|
B|-----------------------------------------------------------------------------|
G|-----------------------------------------------------------------------------|
D|-----2-----0-----3-----2-----02--------2-----0-----3-----2-----02------------|
A|-----------------------------------------------------------------------------|
E|-0-0---0-0---0-0---0-0---0-0-------3-3---3-3---3-3---3-3---3-3---------------|
  |---| |---| |---| |---| |---|     |---| |---| |---| |---| |------------------|
   PM     PM    PM    PM    PM       PM     PM    PM    PM    PM

                                h                                 h
e|-----------------------------------------------------------------------------|
B|-----------------------------------------------------------------------------|
G|-----------------------------------------------------------------------------|
D|-----2-----0-----3-----2-----02--------2-----0-------------------------------|
A|-0-0---0-0---0-0---0-0---0-0-----------------------3-----2-------------------|
E|-----------------------------------0-0---0-0---0-0---0-0---0-0--3~~~---------|
  |---| |---| |---| |---| |---|     |---| |---| |---| |---| |------------------|
   PM     PM    PM    PM    PM       PM     PM    PM    PM    PM

repeat twice per verse, then

e|--------------|
B|--------------|
G|--------------|
D|5-------------|
A|5-------------|
E|3-------------|

_________________________________________________________________________

Chorus

e|-----------------------------------------------------------------------------|
B|-----------------------------------------------------------------------------|
G|-----------------------------------------------------------------------------|
D|-2------------2---2-----------------2------------2---2-----3-3--3-3----------|
A|-2------------2---2------------3~~--2------------2---2-----3-3--3-3----------|
E|-0--3--5--3-0-0---0--3--5--3-0------0--3--5--3-0-0---0--3--1-1--1-1----------|
           |---|           |---|              |--------------------------------|
             PM             PM                 PM

After last chorus, right before solo, do:
e|-------------------------------|
B|-------------------------------|
G|-------------------------------|
D|-3-3--3-3--3-3--3-3--3-3--3-3--|
A|-3-3--3-3--3-3--3-3--3-3--3-3--|
E|-1-1--1-1--1-1--1-1--1-1--1-1--|

____________________________________________________________________________

Solo

e|-/5~~~--5-6--6/8~--8/10~~-10--10-9-10-9------------------------------------|
B|-----------------------------------------10-9-7-10--9-7--------------------|
G|--------------------------------------------------------10-9-7-10-9-7------|
D|---------------------------------------------------------------------------|
A|---------------------------------------------------------------------------|
E|---------------------------------------------------------------------------|

e|------------------------------------------------------------------|
B|-----------------------------------------------10-9~~--9-9-9-9----|
G|---------------------------------------9--10----------------------|
D|-6-------------------------9------10------------------------------|
A|---8-7-8-8-8-7~~~---7--7-7----7-7----7----------------------------|
E|------------------------------------------------------------------|

                                                 p  p     p  p     p  p
e|-----------------------------12--12--13--13--16-13-12-16-13-12-16-13-12----|
B|-9-9-10-10-12-12-13-13-15-15-----------------------------------------------|
G|---------------------------------------------------------------------------|
D|---------------------------------------------------------------------------|
A|---------------------------------------------------------------------------|
E|---------------------------------------------------------------------------|

    p  p     p  p     p  p     p  p     p  p     p  p
e|16-13-12-16-13-12-17-16-13-17-16-13-17-16-13-17-16-13--17b19-17b19-17b19r17-17\|
B|-------------------------------------------------------------------------------|
G|-------------------------------------------------------------------------------|
D|-------------------------------------------------------------------------------|
A|-------------------------------------------------------------------------------|
E|-------------------------------------------------------------------------------|

End of Solo

_____________________________________________________________________________________
Bridge
(The solo ends halfway through the line. This next bit finishes up the line.
e|-------------------------------|
B|-------------------------------|
G|-9--7-9----9--7--5--4----------|
D|-9--7-9----9--7--5--4----------|
A|-7--7-5----7--5--3--2----------|
E|-------------------------------|

And this is the next line of the bridge.
e|-------------------------------------------------------|
B|-------------------------------------------------------|
G|----7-9--ph-------5-10------7-9--ph----9--7--5--4------|
D|-2--7-9--9~~---2--7-10---2--7-9--9~~---9--7--5--4----3-|
A|-2--5-7--------2--5-8----2--5-7--------7--5--3--2----3-|
E|-0-------------0---------0---------------------------1-|

(Raise your flippers to the sky!)

____________________________________________________________________________

Now do chorus until the end, and after the last line of chorus do:
(Should be "I Am Murloc!" then:
e|--------------|
B|--------------|
G|--------------|
D|3-3--3-3------|
A|3-3--3-3------|
E|1-1--1-1------|
then "I am Death.")

Then the last chord after that is a simple
e|--------------|
B|--------------|
G|--------------|
D|2-------------|
A|2-------------|
E|0-------------|

Ok, hope you rate this well, my first complete tabbing with solo and everything. any
e-mail address is at the top. I did not write these tabs myself, I just put them up online.
i can do all of this song except from the 9-9-9-9 until the end of the solo, which i am 
on. And now, the key:

| /  slide up
| \  slide down
| h  hammer-on
| p  pull-off
| ~  vibrato
| +  harmonic
| x  Mute note
===============================================================================    

Added On December 16th, 2013

SHARE

Comments

blog comments powered by Disqus

VERSIONS

ADVERTISEMENT