Libertines Tabs

Horror Show

5 versions

TAB

            Horror Show Tab by Libertines


Hey!
Have been looking in the album booklet and found som chords there which I have based
tab on. It's not 100 % accurate but it's pretty close. In the figures have I given examples
how you can play the chords but you don't have follow them 100 %. Remember to keep up 
speed in the song! Good luck!

Figure 1

   D D D
     C
e--3-3-3---|
B--5-5-5---|
G--5-5-5---|
D--5-5-5---|
A--3-3-3---|
E----------|

figure 2
   D D U U D  U D U D  D
      C        Cmaj7   Bb?
e--3-3-3-3-3--3-3-3-3--3---|
B--5-5-5-5-5--5-5-5-5--3---|
G--5-5-5-5-5--4-4-4-4--3---|
D--5-5-5-5-5--5-5-5-5--3---|
A--3-3-3-3-3--3-3-3-3------|
E--------------------------|

figure 3

  D D D D D D D D D D D D D D D D
          F
e-------------------------------------|
B-------------------------------------|
G-2-2-2-2-2-2-2-2-2-2-2-2-2-2-2-2-----|
D-3-3-3-3-3-3-3-3-3-3-3-3-3-3-3-3-----|
A-3-3-3-3-3-3-3-3-3-3-3-3-3-3-3-3-----|
E-1-1-1-1-1-1-1-1-1-1-1-1-1-1-1-1-----|

figure 4
  D D U U D U D   D U U D U D D U U D U D D U U D U D D D D D
        C            E            Am        A        Dm7    G
e-3-3-3-3-3-3-3/7-7-7-7-7-7-5-5-5-5-5-5-5-5-5-5-5-5-5-5-5-5-3-|
B-5-5-5-5-5-5-5/9-9-9-9-9-9-5-5-5-5-5-5-5-5-5-5-5-5-6-6-6-6-3-|
G-5-5-5-5-5-5-5/9-9-9-9-9-9-5-5-5-5-5-5-6-6-6-6-6-6-5-5-5-5-4-|
D-5-5-5-5-5-5-5/9-9-9-9-9-9-7-7-7-7-7-7-7-7-7-7-7-7-7-7-7-7-5-|
A-3-3-3-3-3-3-3/7-7-7-7-7-7-7-7-7-7-7-7-7-7-7-7-7-7-5-5-5-5-5-|
E---------------------------5-5-5-5-5-5-5-5-5-5-5-5---------3-|

figure 5
  D D U U D  D D U U D
      C         G
e-3-3-3-3-3--3-3-3-3-3-|
B-5-5-5-5-5--3-3-3-3-3-|
G-5-5-5-5-5--4-4-4-4-4-|
D-5-5-5-5-5--5-5-5-5-5-|
A-3-3-3-3-3--5-5-5-5-5-|
E------------3-3-3-3-3-|


Figure 6

e-1/3------1/3----1/3------1/3-------|
B-3/5---5--3/5--5-3/5---5--3/5-5-----|
G-3/5-5----3/5-5--3/5-5----3/5---5---|
D-3/5------3/5----3/5------3/5-------|
A-1/3------1/3----1/3------1/3-------|
E------------------------------------|


Intro:

Figure 1 x 4
Figure 2 x 4

Verse 1:

Figure 2 X 3
Figure 3 x 1

Figure 2 x 2
Figure 3 x 1

Figure 2 x 4
Figure 3 x 1

Figure 2 x 2

Chorus 1:

Figure 4 x 1
Figure 5 x 1
Figure 4 x 1
Figure 5 x 1

Interlude:

Figure 6 X 1

Verse 2:

drums and then:
Figure 3 x 1

Figure 2 x 5
Figure 3 x 1

Figure 2 x 2
Figure 3 x 1

Figure 2 x 2

Chorus 2:

Figure 4 x 1
Figure 5 x 1
Figure 4 x 1
Figure 5 x 1

solo:

I havnt figured it out yet :(.

verse 3:

Figure 1 x 3
Fiugre 3 x 1

Figure 2 x 2
Figure 3 x 1

Figure 2 x 2

Chorus 3:

Figure 4 x 1
Figure 5 x 1
Figure 4 x 1
Figure 5 x 1

/ Andreas    

Added On December 5th, 2013

SHARE

Comments

blog comments powered by Disqus

VERSIONS

ADVERTISEMENT