Ligabue Tabs

Balliamo Sul Mondo

2 versions

TAB

            Balliamo Sul Mondo Tab by Ligabue


BALLIAMO SUL MONDO

Intro: RE SOL DO LAm

Riff principale (si ripete anche durante il ritornello):

e:----------------------|--5-----------------------|
B:----------------------|--------8-----7-----8-----|
G:-------------------7--|-----7-----7-----7-----7--|
D:----------------------|--------------------------|
A:----------------------|--------------------------|
E:----------------------|--------------------------|

------------------------|--5-----------------------|--------------------|
--7-----8--7------------|--------8-----7-----8-----|--7-----8-----------|
-----7----------7----7--|-----7-----7-----7-----7--|-----7---7\5~-------|
------------------------|--------------------------|--------------------|
------------------------|--------------------------|--------------------|
------------------------|--------------------------|--------------------|

NOTA2: All'inizio sembra che ci siano 'troppe note' e che la cosa non torni; continuate 
provare e convincetevi va suonata cosi'.
Se proprio non ci riuscite provare a sopprimere i re (III corda, VII tasto) intermedi: 
bene lo stesso.

[Altra versione: stesse note ma con diverse posizioni (in effetti molto piu' comodo 
se usate un barre' sul 7° tasto (spesso il Liga dal vivo usa uno slide sull'indice)]

e:----------------------|--------------------------|
B:----------------------|--10----8-----7-----8-----|
G:-------------------7--|-----7-----7-----7-----7--|
D:----------------------|--------------------------|
A:----------------------|--------------------------|
E:----------------------|--------------------------|


------------------------|--------------------------|--------------------|
--7-----8--7------------|--10----8-----7-----8-----|--7-----8-----------|
-----7----------7----7--|-----7-----7-----7-----7--|-----7-----5~-------|
------------------------|--------------------------|--------------------|
------------------------|--------------------------|--------------------|
------------------------|--------------------------|--------------------|

Sotto la strofa l'elettrica fa dei power chord con palm muting:

RE5: x577xx 	SOL5: 355xxx 	DO5: x355xx	LA5: 577xxx

LAm
      RE           SOL             DO        LAm
Siamo della stessa pasta bionda non la bevo sai.
         RE             SOL         DO          LAm
Ce l'hai scritto che la vita non ti viene come vuoi.
         RE                SOL          DO          LAm
Ma e' la tua e per me e' speciale e se ti puo' bastare sai
           RE        SOL         DO              LAm
Che se hai voglia di ballare uno pronto qui ce l'hai

Rit.
             RE
Balliamo sul mondo!!

SOL           DO        LAm
Va bene qualsiasi musica
        RE
cadremo ballando
SOL           DO            LAm
sul mondo lo sai si scivola.
               RE    SOL
Facciamo un fandango
             DO          LAm
La' sotto qualcuno ridera'
                RE          SOL DO LAm
Balliamo sul... mondo!!!!

Non ti offro grandi cose pero' quelle li' le avrai
Niente case ne' futuro ne' certezze, forse guai
Ma se dall'Atlantide all'Everest non c'e' posto per noi
Guido io in questo tango ci facciamo posto dai

Rit.

RE
Balliamo sul mondo!!
SOL           DO        LAm
Va bene qualsiasi musica
        RE
cadremo ballando
SOL          DO           LAm
sul mondo lo sai si scivola.
               RE    SOL
Facciamo un fandango
             DO          LAm
La' sotto qualcuno fischiera'
                RE          SOL DO LAm
Balliamo sul... mondo!!!!

[Riff principale]
[Assolo] la divisione in battute serve solo a separare le parti del solo

    vvvvvvvv leva tremolo vvvv
e:---------|----------10----|---------------------------|
B:-10------|-------5------5-|--8/10-8------8/10-8-------|
G:--7------|--7--7--------5-|---------10-7--------10-7--|
D:---------|----------------|---------------------------|
A:---------|----------------|---------------------------|
E:---------|----------------|---------------------------|

e:---------------------10-/17---7-8-10-|-----------|
B:-8/10-8---------10-8-----------------|-----------|
G:--------10-7--7----------------------|-----------|
D:-------------------------------------|--5-5-7-7--|
A:-------------------------------------|--5-5-7-7--|
E:-------------------------------------|-----------|

e:------------                --10--|
B:------------                ------|
G:------------ si ripete e    ------|
D:--5-5-5-7-7- finisce con    ------|
A:--5-5-5-7-7-                ------|
E:------------                ------|

[Nuova versione, probabilmente piu' corretta]

------------------------------------10--------8--------------|
-------5----------8------8-/10b-r-8-----8-10-----------------|
-0------------5-7----5-7-------------------------------------|
-7-----------------------------------------------------------|
-------------------------------------------------------------|
-------------------------------------------------------------|


-10b-r-10-10-8---------8-10-10-10----8---/10---/12---/15-----|
---------------10-8-10---------------------------------------|
-----------------------------------/8--/10---/12---/14-------|
-------------------------------------------------------------|
-------------------------------------------------------------|
-------------------------------------------------------------|

--8-----/10--/12-12/15----17 17b-r--15p14h15p14--------------|
------------------------------------------------15-----------|
-8--/10-10-/12-----------------------------------------------|
-------------------------------------------------------------|
-------------------------------------------------------------|
-------------------------------------------------------------|

--------------------------------------------------------------|
--------------------------------------------15-----15-----15--|
-------------------14--------12-14-12----14b--r-14b--r-14b----|r
-12-12-12-12-14-12---12-14-12---------------------------------|
--------------------------------------------------------------|
--------------------------------------------------------------|

-----------------17--15-14-15-14-12-10^^^^^^^^----------------|
-15-15-15-15--15----------------------------------------------|
-14-14-14-14--------------------------------------------------|
--------------------------------------------------------------|
-----------------------------------------------12\\\\\\\\\\\\-|
--------------------------------------------------------------|

Fred e Ginger sono su una supernova sopra noi
Chiudi gli occhi e tieni il tempo  e sara' quasi fatta dai
C'e' chi vince e c'e' chi perde, noi balliamo casomai
Non avremo classe ma abbiamo gambe e fiato finche' vuoi

         vvvv     vvvv    

Added On December 5th, 2013

SHARE

Comments

blog comments powered by Disqus

VERSIONS

ADVERTISEMENT