Lily Allen Tabs

Smile Acoustic

1 versions

TAB

            Smile Acoustic Tab by Lily Allen


this is the acoustic one from radio 1 live lounge album
_____________________________________________________________________
its an awesome album, id suggest gettin it if you can

intro
|------------------------8--6----6-5--|
|--8----8-10-11--10------10-8----8-6--|
|--7----7-9--10--9-------9--7----7-5--|
|--8----8-10-12--10------10-8----8-7--|
|--6----6-8--10--8-------8--6----6-5--|
|-------------------------------------|

|------------------|
|-------10\8-------|
|------------10----|
|--8/10------------|
|------------------|
|------------------|

verse

|------10------10------10--------10------|
|------11------11------11--------11------|
|------10------10------10--------10------|
|------12------12------12--------12------|
|---10-------------10--------------------|
|----------10--------------10-10---------|

|-----8----8-----8------8----|
|-----10---10----10-----10---|
|-----9----9-----9------9----|
|-----10---10----10-----10---|
|--8-----------8-------------|
|--------8-----------8-------|

chorus

same as verse BUT sometimes the a random bits like

|------10------10------12-12-12-12--|
|------11------11------11-11-11-11--|
|------10------10------10-10-10-10--|
|------12------12------12-12-12-12--|
|---10-------------10---------------|
|----------10-----------------------|

|-----8----8---------6/8--8-8-8-----|
|-----10---10--------8/10-101010----|
|-----9----9---------7/9--9-9-9-----|
|-----10---10--------8/10-101010----|
|--8-----------------7/8--8-8-8-----|
|--------8--------------------------|


thanks for looking, this is quite accurate so trust it :D

cheers cya,

alexander elworthy frm northampton, england

incubus-rock@hotmail.co.uk    

Added On December 5th, 2013

SHARE

Comments

blog comments powered by Disqus

ADVERTISEMENT