Limp Bizkit Tabs

Break Stuff

15 versions

TAB

            Break Stuff Tab by Limp Bizkit


limp bizkit Break Stuff.
Tabbed by joel guttormson Paracomp@aol.com.
  
All the other break stuff tabs are wrong I have the real one.  

Artist-Limp Bizkit
Song-Break Stuff
PM.-PALM MUTE  O- OPEN
This song should be im normal 7-string tuning(B,E,A,D,G,B,E)

    O--------
E-----------------------------------------------------
B-----------------------------------------------------
G-----------------------------------------------------
D-----------------------------------------------------
A---2-----3-------------------------------------------
E---2-----3-------------------------------------------
B---0-----1-----X12-----------------------------------

CHORUS 
                  PM------
E-----------------------------------------------------
B-----------------------------------------------------
G-----------------------------------------------------
D-----------------------------------------------------
A---2--2--2-------2-2-2----2--2------2----3-----------
E---2--2--2-------2-2-2----2--2------2----3-----------
B---0--0--0-------0-0-0----0--0------0----1-----------

BACK TO VERSE


NOW IT'S THE "I FEEL LIKE SHIT" PART
   PM------------------
E-----------------------------------------------------
B-----------------------------------------------------
G-----------------------------------------------------
D-----------------------------------------------------
A--2-2----2-2---2-2--2-2---2--------------------------
E--2-2----2-2---2-2--2-2---2--------------------------
B--0-0----0-0---0-0--0-0---0-----GO TO "GIVE ME SOMETHING TO BREAK"

PLAY THIS OPEN .


AND NOW YOU KNOW HOW TO PLAY BREAK STUFF THE RIGHT WAY IF YOU HAVE ANY PROBLEMS e-mail me at Paracomp@aol.com 

:: Ultimate Guitar Archive :: 
http://www.ultimate-guitar.com    

Added On December 5th, 2013

SHARE

Comments

blog comments powered by Disqus