Limp Bizkit Tabs

Eat You Alive

9 versions

TAB

            Eat You Alive Tab by Limp Bizkit


Limp Bizkit - Eat You Alive
Drop C Tuning

Intro
#1
D-----------------------------------
A-----------------------------------
F-----------------------------------
C-1h3-3-3-4---4---------------------
G-1h3-3-3-4---4---------------------
C-1h3-3-3---1-----------------------x3
#2
D----------------------------
A----------------------------
F----------------------------
C-1h3-3-3-4------------------
G-1h3-3-3-4------------------
C-1h3-3-3--------------------x1
then play #1 4 more times

Verse
D-------------------------------
A-------------------------------
F-------------------------------
C-1h3-3-3-4---4-1h3-3-3-3-------
G-1h3-3-3-4---4-1h3-3-3-3-------
C-1h3-3-3---1---1h3-3-3-3-------
(palm muted)

Pre-Chorus
D-----------------------------------
A-----------------------------------
F-----------------------------------
C-1h3-3-3-4---4---------------------
G-1h3-3-3-4---4---------------------
C-1h3-3-3---1-----------------------x8

Chorus
D-----------------------------------
A-----------------------------------
F-6-----8----10---------------------
C-6-----8----10-----3---------------
G-4-----6-----8-----3---------------  
C-------------------3---------------

Bridge
D-----------------------------------
A--------14----------14-------------
F-----13----13----13----------------
C--11----------11-------------------
G-----------------------------------
C-----------------------------------

D-----------------------------------
A--------14----------14-------------
F-----13----13----13----13----------
C--11----------11----------13-------
G-----------------------------------
C-----------------------------------    

Added On December 5th, 2013

SHARE

Comments

blog comments powered by Disqus