Lindsay Lohan Tabs

First

2 versions

TAB

            First Tab by Lindsay Lohan


----------------------------------------------------------------------------
			     FIRST - Lindsay Lohan
----------------------------------------------------------------------------
Tabbed by: Cody "DarkATi" Miller
Email: webmaster@riseofpower.net

Tuning: EADGBE Standard

Intro / First Verse

D ---------------------------------------------------------|
A ---------------------------------------------------------|
F ---------------------------------------------------------|
C -----------------------5---------------------------------|
G -----4-4---------5-5-3---3-----4-4---------5-5-3---------|
D -5-5-----5-5-3-2-----------5-5-----5-5-3-2-------2-2-3-5-|
                           ^                       ^
                           B - bend that note.     Use alternate picking.

Pre-Chorus / Chorus

   ...mine...              ...and tonight... You don't revolve...

D -----------------------------------------------------------------|
A -----------------------------------------------------------------|
F ---------------------------------3-3-3-3-3-3-3-3-5-5-5-5-5-5-5-5-|
C -5-5-5-5-5-5-5-5-7-7-7-7-7-7-7-7-3-3-3-3-3-3-3-3-5-5-5-5-5-5-5-5-|
G -5-5-5-5-5-5-5-5-7-7-7-7-7-7-7-7-1-1-1-1-1-1-1-1-3-3-3-3-3-3-3-3-|
D -3-3-3-3-3-3-3-3-5-5-5-5-5-5-5-5---------------------------------|

As far as I can tell that power chord progression is the same
throughout the chorus.

Post-Chorus

D -------------------------------------|
A -------------------------------------|
F -------------------------------------|
C -------------------------------------|
G -----4-4---------------4-4-----------|
D -5-5-----5-5-4-4-5-5-5-----5-5-4-4-5-|
               ^ ^ ^             ^ ^ ^
           Alternate Picking is necessary.


Second Verse

A second guitar plays this power chords over and over.

D ---
A ---
F ---
C -7-
G -7-
D -5-

While the other guitar plays the riff from the first verse.

D ---------------------------------------------------------|
A ---------------------------------------------------------|
F ---------------------------------------------------------|
C -----------------------5---------------------------------|
G -----4-4---------5-5-3---3-----4-4---------5-5-3---------|
D -5-5-----5-5-3-2-----------5-5-----5-5-3-2-------2-2-3-5-|
                           ^                       ^
                           B - bend that note.     Use alternate picking.

Palm Muted Section

D -------------------------------------------|
A -------------------------------------------|
F -------------------------------------------|
C -------------------------------------------|
G -------------------------------------------|
D -5-5-5-5-5-5-5-5-5-5-5-5-5-5-5-5-5-5-5-5-5-|

That's it! It's a simple song, it just sounds complicated.


| /  slide up
| \  slide down
| h  hammer-on
| p  pull-off
| ~  vibrato
| +  harmonic
| x  Mute note
=========================================================================    

Added On December 5th, 2013

SHARE

Comments

blog comments powered by Disqus

VERSIONS

ADVERTISEMENT