Lion Babe Tabs

Little Dreamer tab

1 versions

TAB

            x[Intro]
e|---------------------------------------------------------------------------|
B|---------------------------------------------------------------------------|
G|--------11-----------11-----------11-----------11---------9-------9--------|
D|-----11----11-----11----11-----11----11-----11----11----9---9---9---9------|
A|---9------------9------------9------------9-----------7-------7------------|
E|-9------------9------------9------------9-------------7-------7------------|

e|---------------------------------------------------------------------------|
B|------------10-------------------------------------------------------------|
G|------11-------11----11-----9----------------------------------------------|
D|---11----11-------11------9---9---9---9------------------------------------|
A|-9----------------------7-------7------------------------------------------|
E|-9----------------------7-----------7--------------------------------------|


[Verse]
e|---------------------------------------------------------------------------|
B|---------------------------------------------------------------------------|
G|------11---------11----------9-------9-------------------------------------|
D|---11----11---11----11-----9---9---9---9-----------------------------------|
A|-9----------9------------7-------7-----------------------------------------|
E|-9-----------------------7-------------------------------------------------|

e|-9---------------------------7---------------------------------------------|
B|-10----------10--------------7---------------------------------------------|
G|-11----11---------11----11---9---9-------9---------------------------------|
D|-11-11----11---------11------9-9---9---9---9-------------------------------|
A|-9---------------------------7-------7-------------------------------------|
E|-9---------------------------7---------------------------------------------|

e|---------------------------------------------------------------------------|
B|------------10-------------------------------------------------------------|
G|------11-------11----11-----9----------------------------------------------|
D|---11----11-------11------9---9---9---9------------------------------------|
A|-9----------------------7-------7------------------------------------------|
E|-9----------------------7-----------7--------------------------------------|

e|---------------------------------------------------------------------------|
B|---------------------------------------------------------------------------|
G|-------11-----------11----------9--------9---------------------------------|
D|----11----11-----11----11-----9---9----9---9-------------------------------|
A|-9------------9------------7--------7--------------------------------------|
E|-9------------9------------7--------7--------------------------------------|


e|-9-----------------------7-------------------------------------------------|
B|-10----------------------7-------------------------------------------------|
G|-11----11---------11-----9---9-------9-------------------------------------|
D|-11-11----11---11----11--9-9---9---9---9-----------------------------------|
A|-9-----------9-----------7-------7-----------------------------------------|
E|-9-----------------------7-------------------------------------------------|

e|---------------------------------------------------------------------------|
B|---------------------------------------------------------------------------|
G|-------11-----------11----------9--------9---------------------------------|
D|----11----11-----11----11-----9---9----9---9-------------------------------|
A|-9------------9------------7--------7--------------------------------------|
E|-9------------9------------7--------7--------------------------------------|

e|-9---------------------------7---------------------------------------------|
B|-10----------10--------------7---------------------------------------------|
G|-11----11---------11----11---9---9-------9---------------------------------|
D|-11-11----11---------11------9-9---9---9---9-------------------------------|
A|-9---------------------------7-------7-------------------------------------|
E|-9---------------------------7---------------------------------------------|

e|-----------------------------------------7---------------------------------|
B|-----------------------------------------7---------------------------------|
G|--------11-----------11------------9-----9---------------------------------|
D|-----11----11-----11----11-------9---9---9---------------------------------|
A|---9------------9--------------7---------7---------------------------------|
E|-9------------9--------------7-----------7---------------------------------|


[Break]
e|-----------9-------12----11---7--7-------------9---12-11-8--7--------------|
B|-----------9-------9-----9----7--7-------------9---9--9--8--7--------------|
G|-----------9---------------------7-------------9---9--9--8--7--------------|
D|-9/10/11---11---11----11----9----9---9/10/11---11--11-11-10-9--------------|
A|-9/10/11-------------------------9---9/10/11---11--9--9--8--7---7----------|
E|-7/8-/9--------------------------7---7/8-/9----9---9--9--8--7---0----------|


[Verse]
e|---------------------------------------------------------------------------|
B|---------------------------------------------------------------------------|
G|--------11-----------11-----------11-----------11---------9-------9--------|
D|-----11----11-----11----11-----11----11-----11----11----9---9---9---9------|
A|---9------------9------------9------------9-----------7-------7------------|
E|-9------------9------------9------------9-------------7-------7------------|

e|---------------------------------------------------------------------------|
B|------------10-------------------------------------------------------------|
G|------11-------11----11-----9----------------------------------------------|
D|---11----11-------11------9---9---9---9------------------------------------|
A|-9----------------------7-------7------------------------------------------|
E|-9----------------------7-----------7--------------------------------------|


e|---------------------------------------------------------------------------|
B|---------------------------------------------------------------------------|
G|-------11-----------11----------9-------9----------------------------------|
D|----11----11-----11----11-----9---9---9---9--------------------------------|
A|-9------------9------------7-------7---------------------------------------|
E|-9------------9------------7-------7---------------------------------------|

e|---------------------------------------------------------------------------|
B|------------10-------------------------------------------------------------|
G|------11-------11----11-----9----------------------------------------------|
D|---11----11-------11------9---9---9---9------------------------------------|
A|-9----------------------7-------7------------------------------------------|
E|-9----------------------7-----------7--------------------------------------|


[Outro]
e|-9---------------------------7---------------------9---------------------7-|
B|-10--------------------------7---------------------10--------------------7-|
G|-11--------------------------9---------------------11--------------------9-|
D|-11--------------------------9---------------------11--------------------9-|
A|-9---------------------------7---------------------9---------------------7-|
E|-9---------------------------7---------------------9---------------------7-|

e|-----------9-------12----11---7--7-------------9---12-11-8--7-------------4|
B|-----------9-------9-----9----7--7-------------9---9--9--8--7-------------5|
G|-----------9---------------------7-------------9---9--9--8--7-------------6|
D|-9/10/11---11---11----11----9----9---9/10/11---11--11-11-10-9-------------6|
A|-9/10/11-------------------------9---9/10/11---11--9--9--8--7-------------4|
E|-7/8-/9--------------------------7---7/8-/9----9---9--9--8--7-------------4|


************************************

| /   Slide up

************************************    

Added On August 12th, 2017

SHARE

Comments

blog comments powered by Disqus

ADVERTISEMENT