Living Sacrifice Tabs

Burn The End

2 versions

TAB

            Burn The End Tab by Living Sacrifice


Living Sacrifice
Burn the End
The Hammering Process

Tabbed by: Me

I've looked for hours upon end for tabs of this song, and no results. So here.

Guitar tuned down half a step and in drop d.

(you can figure out the strumming)
---------
---------
---------
--2-3-6--
--2-3-6--
--2-3-6--

-----------
-----------
-----------
--2-3-6-0--
--2-3-6-0--
--2-3-6-0-- (repeat these four times)

-----------------
-----------------
-----------------
-3-2-2-3-2-2-6-2-
-3-2-2-3-2-2-6-2-
-3-2-2-3-2-2-6-2-  (repeat quite a few times)
(palm mute)

Back to beginning


---------------------
---------------------
---------------------
-3-2-2-6---2-3-2-2-6-
-3-2-2-6---2-3-2-2-6-
-3-2-2-6---2-3-2-2-6-   (repeat 16x)

back to beginning

(clean acoustic)
-0--7--------------------------------7------------------
-8--8--8----8--10--8--10--10--8----8---8----8--10--8--10
-9--9----9--9--9---9--9---9---9--9-------9--9--9---9--9-
--------------------------------------------------------
--------------------------------------------------------
--------------------------------------------------------

-5--------------------------------------------------
-5---5------5-----5----------5-----5-----5----------
-7-----7------7-----7---7------7-----7-----7---7----
-7-------7------7-----7----------7-----7-----7------
----------------------------------------------------
----------------------------------------------------  (repeat)

solo

----------------------------------------
-12-12-13-15-13-12-13-12h13p12----12----
-------------------------------14----14-
----------------------------------------
----------------------------------------
----------------------------------------

----------------------------------------
----------15----------------------------
-12-11-12----12-11----------11h12p11----
-------------------14-14-14-------------
----------------------------------------
----------------------------------------

---------------------------------------------
-------15-------13-12----12-10----10---------
-11-12----12-11-------14-------12----12-11-12
---------------------------------------------
---------------------------------------------
---------------------------------------------

---------------------------------------------
---------------------------------------------
--9-12-9-11-11h12p9-11h12p11-11h12p9--7/11\9-
---------------------------------------------
---------------------------------------------
---------------------------------------------

----------------------------------------
-----------12---------------------------
-----11-12----12-14-11-12-9-------------
--14------------------------/14---------
----------------------------------------
----------------------------------------

----------------------------------------
-----------12---------------------------
-----11-12----12-14-11-12----14---------
--14----------------------14------------
----------------------------------------
----------------------------------------

----------------------------------------
-----12-13-15-13-12-13-13-12h13p12------
--14-------------------------------14---
----------------------------------------
----------------------------------------
----------------------------------------

----------------------------------------
--12----------15-------13---------------
-----14-12-11----12-11----11-12-11h12p11
----------------------------------------
----------------------------------------
----------------------------------------

----------------------------------------
----------------------------------------
-----11-------9-------------------------
--14----14-12---/14---------------------
----------------------------------------
----------------------------------------
(heavy dist.)
----------------------------------------
----------------------------------------
----------------------------------------
-\2-------3-2---------------------------
-\2-3-2-0-----2-3-2---------------------
-\2-----------------5-2----------------- (repeat 4x)

---
---
---
-2-
-2-
-2-

----------------------------------------
----------------------------------------
----------------------------------------
-\2-------3-2---------------------------
-\2-3-2-0-----2-3-2---------------------
-\2-----------------5-2----------------- 

-----------
-----------
-----------
-2-2-5-2-5-
-2-2-5-2-5-
-2-2-5-2-5-

---------
---------
---------
--2-3-6--
--2-3-6--
--2-3-6--(repeat 3x)

------------------------
------------------------
------------------------
-2-2-2-3-2-2-2-2-2-2-2-2
-2-2-2-3-2-2-2-2-2-2-2-2
-2-2-2-3-2-2-2-2-2-2-2-2
             (palm mute)

---------
---------
---------
--2-3-6--
--2-3-6--
--2-3-6--

-----------
-----------
-----------
--2-3-6-0--
--2-3-6-0--
--2-3-6-0-- (repeat twice)

--------------------------------------------
--------------------------------------------
--------------------------------------------
-2-x-x-x-3-x-x-6-x-x-x-x-x------------------
-2-x-x-x-3-x-x-6-x-x-x-x-x------------------
-2-x-x-x-3-x-x-6-x-x-x-x-x------------------

--------------------------------------------
--------------------------------------------
--------------------------------------------
-2-x-x-x-3-x-x-6-x-x-0-0--------------------
-2-x-x-x-3-x-x-6-x-x-0-0--------------------
-2-x-x-x-3-x-x-6-x-x-0-0-------------------- (repeat twice)


That's it. As you may have noticed, I didn't write out the strumming patterns or
how many times you strum each chord on most of them, so beware. You can figure it
out yourself. If any questions, comments, or corrections, e-mail me at
GSusfreak4real@aol.com. Thanks.    

Added On December 5th, 2013

SHARE

Comments

blog comments powered by Disqus

VERSIONS

ADVERTISEMENT