Long Addiction Tabs

Waterfall

2 versions

TAB

            Waterfall Tab by Long Addiction


/WATERFALL - LONG ADDICTION
/WRITTEN BY - PAUL CURTIS-HARPER
/MUSIC BY LONG - ADDICTION

/VERSE - 1

e----0----7----5----5----0----7----5----5-------
b----0----7----7----5----0----7----7----5-------
g----1----8----7----6----1----8----7----6-------
d----2----9----7----7----2----9----7----7-------
a----2----9----5----7----2----9----5----7-------
E----0----7---------5----0----7---------5-------


This is the song all the way through, its as easy as that so
i'll show where to chords come in with the singing

E B D 
Waterfall is coming down water falling all around
A
On the ground

And then..........

E B
Lost at sea you dont know what to do
D A
You hope the look for you you hope they think of you

/CHORUS
E B D A 
Cos I______ know, the waterfall can give you hope 
E B D A 
And I______ know, why the rivers they no longer flow, no longer


/VERSE - 2

e----0----7----5----5----0----7----5----5-------
b----0----7----7----5----0----7----7----5-------
g----1----8----7----6----1----8----7----6-------
d----2----9----7----7----2----9----7----7-------
a----2----9----5----7----2----9----5----7-------
E----0----7---------5----0----7---------5-------

It goes back in the intro with rhythm and lead guitar

That's about it    

Added On December 5th, 2013

SHARE

Comments

blog comments powered by Disqus

VERSIONS

ADVERTISEMENT