Loreena Mckennitt Tabs

Serenissima

2 versions

TAB

            Serenissima Tab by Loreena Mckennitt


E||---0-0-0-----------------|---------0---------------------||
B||---------1-0-------0-1-0-|---0-1-3---1-0-------0-0h1p0---||
G||-2-----------2-0-2-------|---------------2-0-2---------2-||
D||-------------------------|-------------------------------||
A||-0-------0---------------|-----------0-------------------||
E||---------------3-------3-|---3-------------3-------------|| X2

E||-0---0-2-3-0---------0---|---0---0-2-3-0-----------------||
B||---3---------3-0-1-3-----|-----3---------3-0-1-0------(0)||
G||-------------------------|-----------------------2(0h2)--||
D||-------------------------|-------------------------------||
A||-3-----------------------|---3-------------------0-------||
E||---------3---3-------3---|-----------3---3---------------|| X2

This repeats with slight variations and different instruments for the entire song.


Thanks to David Msika, who did most of the work; I just added the bass line.
-Sean Wilkinson    

Added On December 5th, 2013

SHARE

Comments

blog comments powered by Disqus

VERSIONS

ADVERTISEMENT