Los Lobos Tabs

Sabor A Mi

1 versions

TAB

            Sabor A Mi Tab by Los Lobos


Sabor A Mi by Los Lobos Album: Del Este De Los Angeles
Transcribed by Francisco Hernandez
elfangor2k@yahoo.com


Before you begin the song, strum this chord slowly:

    C#7 
|-------------------|
|-------------------|
|------10~----------|
|-----9-------------|
|----8--------------|
|---9---------------|


Intro:

   F#m
|----9-10-10h12-10-9h10p9----9------|
|---10--------------------12--------|
|--11--------------------------11=--|
|-----------------------------------|
|-----------------------------------|
|-----------------------------------|

|---9----9-------------------------------------------|
|-----12----12-14-15-12-14-15-12-14-10-12-10-12------|
|-----------------------------------------------9=---|
|----------------------------------------------------|
|----------------------------------------------------|
|----------------------------------------------------|



|--------------------------------------------------------------7-9-7-9-10s12---|
|--(10s)12-12-12--9-10-12-10-12-10-9h10p9-7-9-9-10--10--7-9-10-----------------|
|------------------------------------------------------------------------------|
|------------------------------------------------------------------------------|
|------------------------------------------------------------------------------|
|------------------------------------------------------------------------------|

   F#m
|----9--12-10-12-10-9h10p9----9-----------------12---------------------|
|---10---------------------12---12-10-9------10----12h14-10------------|
|--11-----------------------------------11-9----------------11-9-7-6---| 
|----------------------------------------------------------------------|
|----------------------------------------------------------------------|
|----------------------------------------------------------------------|



CHORDS


C#7		9 8 9 10xx
F#m		x9 11 11 10 9
Bm7add4    	xx12 11 12 12
Bm7         	7x777x
C#m7         	9x999x
Cm7        	8x888x
Dm7          	10x10-10-10x    

Added On December 5th, 2013

SHARE

Comments

blog comments powered by Disqus

ADVERTISEMENT