Los Saicos Tabs

Lonely Star

1 versions

TAB

            LONELY STAR
1965

INTERPRETE : CESAR CASTRILLON / ERWIN FLORES


INTRO

e|---0---0---0---0--|-0---0---0---0----|
b|-0--3---2---1---0-|---3---2---1---0--|
g|------------------|------------------|
D|------------------|------------------|
A|------------------|------------------|
E|------------------|------------------|

e|---0---0---0---0--|-0---0---0---0----|
b|-0--3---2---1---0-|---3---2---1---0--|
g|------------------|------------------|
D|------------------|------------------|
A|------------------|------------------|
E|------------------|------------------|


e|---0---0---0---0--|
b|-0--3---2---1---0-|
g|------------------|
D|------------------|
A|------------------|
E|------------------|


Em
IN MY LONELY STAR
Em
I REMEMBER YOU
G   A           C
I  SEE IN YOUR LOVE
       Em
IN MY LONELY STAR
C  D
I  CRY
                        Em ( REPETIR INTRO 2 VECES )
YOU KNOW  , YOU KNOW I CRY

G                     Em
AHHH...I WILL FOLLOW YOU
G                        Em
AHHH...YOU WILL TALK TO ME
G                       Em
AHHH...I WILL REACH TO YOU
G                       Em
AHHH...I WILL KISS YOU SO
     C      D
BUT NOW I CRY
                       Em 
YOU KNOW , YOU KNOW I CRY

   Em                 Em

e|---0---0---0---0--|-0---0---0---0----|
b|-0--3---2---1---0-|---3---2---1---0--|
g|------------------|------------------|
D|------------------|------------------|
A|------------------|------------------|
E|------------------|------------------|

                         DARLING I NEED YOU

   Em                 Em

e|---0---0---0---0--|-0---0---0---0----|
b|-0--3---2---1---0-|---3---2---1---0--|
g|------------------|------------------|
D|------------------|------------------|
A|------------------|------------------|
E|------------------|------------------|


Em
IN MY LONELY STAR
Em
I REMEMBER YOU
G   A           C
I  SEE IN YOUR LOVE
       Em
IN MY LONELY STAR
C  D
I  CRY
                        Em ( REPETIR INTRO 2 VECES )
YOU KNOW  , YOU KNOW I CRY

G                     Em
AHHH...I WILL FOLLOW YOU
G                        Em
AHHH...YOU WILL TALK TO ME
G                       Em
AHHH...I WILL REACH TO YOU
G                       Em
AHHH...I WILL KISS YOU SO
     C      D
BUT NOW I CRY
                       Em ( REPETIR INTRO HASTA EL FINAL )
YOU KNOW , YOU KNOW I CRY


Em                       Em
  YOU KNOW , YOU KNOW I CRY
                       Em
YOU KNOW , YOU KNOW I CRY
                       Em
YOU KNOW , YOU KNOW I CRY
                       Em
YOU KNOW , YOU KNOW I CRY
                       Em
YOU KNOW , YOU KNOW I CRY
                       Em
YOU KNOW , YOU KNOW I CRY
                       Em
YOU KNOW , YOU KNOW I CRY
                       Em
YOU KNOW , YOU KNOW I CRY

FIN    

Added On December 16th, 2013

SHARE

Comments

blog comments powered by Disqus

ADVERTISEMENT