Lostprophets Tabs

Catch Tomorrow

1 versions

TAB

            Lostprophets                tabbed by [Sam-Jacob]
"Catch Tomorrow"

Drop D

|----------------------------------------------------------------------------|
|-----------17-------15--15--17-------15--15--17-------15--15--17------------|
|--------------16---------------16---------------16---------------16---------|
|-----14-14-------14---------------14---------------14---------------14------|  
|----------------------------------------------------------------------------|
|----------------------------------------------------------------------------|



|--------------------------------------------------------------------------------------|
|--------------------------------------------------------------------------------------|
|--------------------------------------------------------------------------------------|
|--------------------------------------------------------------------------------------|
|--2-2-2-2-2-2-2-2-2-2-2-2-2-2-2-4-5-7-10-10-10-10-10-10-10-10-7-7-7-7-7-7-7-7-9-7-5---|
|--2-2-2-2-2-2-2-2-2-2-2-2-2-2-2-4-5-7-10-10-10-10-10-10-10-10-7-7-7-7-7-7-7-7-9-7-5---|

Verse

|-----------------------|
|-----17--17--17--------|
|-----16--16--16--------| 
|-----14--14--14--------|
|-----------------------|
|-----------------------|

Pre chorus

|-------------------------------------------------------------------|
|-------------------------------------------------------------------|
|--5-5-5-5-5-5-5-5-2-2-2-2-2-2-2-2----------------------------------|
|--5-5-5-5-5-5-5-5-2-2-2-2-2-2-2-2-2-2-2-2-2-2-2-2-5-5-5-5-5-5-5-5--|
|--3-3-3-3-3-3-3-3-0-0-0-0-0-0-0-0-2-2-2-2-2-2-2-2-5-5-5-5-5-5-5-5--|
|----------------------------------2-2-2-2-2-2-2-2-5-5-5-5-5-5-5-5--|

Chorus

|-------------------------------------------------------------------------------|
|-------------------------------------------------------------------------------|
|--5-5-5-5-5-----------7-7-7-7-7-9-9-7-7-5-5-5-5-5-----------7-7-7-7-7-9-9-7-7--|
|--5-5-5-5-5-5-5-5-5-5-7-7-7-7-7-9-9-7-7-5-5-5-5-5-5-5-5-5-5-7-7-7-7-7-9-9-7-7--|  
|--3-3-3-3-3-5-5-5-5-5-5-5-5-5-5-7-7-5-5-3-3-3-3-3-5-5-5-5-5-5-5-5-5-5-7-7-5-5--|
|------------5-5-5-5-5-----------------------------5-5-5-5-5--------------------|
    

down, down, down, down, up, repeat for the rhythm

Intro

Verse

Pre chorus

Chorus

Solo

|-------------------------------------------------------------------|
|-------------------------------------------------------------------|
|----9~---/12/14---\9~---/12-11-7\4/7/9~---/12-14-16-16~------------|
|-------------------------------------------------------------------|
|-------------------------------------------------------------------|
|-------------------------------------------------------------------|

Over the chords (two guitar parts)

|-------------------------------------------------------------------|
|-------------------------------------------------------------------|
|--5-5-5-5-5-5-5-5-2-2-2-2-2-2-2-2----------------------------------|
|--5-5-5-5-5-5-5-5-2-2-2-2-2-2-2-2-2-2-2-2-2-2-2-2-2-2-2-2-2-2-2-2--|  x 2
|--3-3-3-3-3-3-3-3-0-0-0-0-0-0-0-0-2-2-2-2-2-2-2-2-2-2-2-2-2-2-2-2--|
|----------------------------------2-2-2-2-2-2-2-2-2-2-2-2-2-2-2-2--|

Then


|-------------------------------------------------------------------|
|-------------------------------------------------------------------|
|-------------------------------------------------------------------|
|--2----2-------------2-----2---------------------------------------|
|--2----2-------------2-----2---------------------------------------|
|--2----2-------------2-----2---------------------------------------|    

Added On December 16th, 2013

SHARE

Comments

blog comments powered by Disqus

ADVERTISEMENT