Lucy Kaplansky Tabs

Guinevere

2 versions

TAB

            This is a pretty rough tab and isn't perfectly exact. There are slight changes in th way
parts are picked each verse too. However, it's mostly the same, so the tab given below
be repeated twice except for the intro part (the first four bars). After this, bars 
and ending in asterisks should be played once. Then play ending bit.

     H        Q    E  S  S    E  E  E  S  S E  E  E  E
E||------------------------|--0----------------5--4--5--|
B||-------------------2h-3-|----------------2-----------|
G||------------------------|-----------2h-4-------------|
D||------------------------|-----2----------------------|
A||------------------------|--0-----4-------0-----------|
E||------------------------|----------------------------|


  ^
  E  E  E  E  Q    E  S  S    E  E  E  S  S E  E  E  E
--2--0---------------------|--0----------------5--4--5--|
--3-----3--2--2----0--2h-3-|----------------2-----------|
--2--------2--2----1-------|-----------2h-4-------------|
--0------------------------|-----2----------------------|
-----------0--0------------|--0-----4-------0-----------|
-------------------0-------|----------------------------|


  ^              Guinevere....
  E  E  E  E  H           E  E  E  S  S E  E  E  E
--2--0-----------------|*-------------------5--4--5--|
--3-----3--2--0--------|*----------------2-----------|
--2--------2--1--------|*-----------2h-4-------------|
--0--------------------|*-----2----------------------|
-----------0-----------|*--0-----4-------0-----------|
--------------0--------|*----------------------------|


  ^      In my castle...
  E  E  E  E  Q    E  S  S    E  E  E  S  S E  E  E  E
--2--0---------------------|--0----------------5--4--5--|
--3-----3--2--2----0--2h-3-|----------------2-----------|
--2--------2--2----1-------|-----------2h-4-------------|
--0------------------------|-----2----------------------|
-----------0--0------------|--0-----4-------0-----------|
-------------------0-------|----------------------------|


  ^            Make a new...
  E  E  E  E  H           E  E  E  S  S E  E  E  E
--2--0-----------------|-------------------5--4--5--|
--3-----3--2--0--------|----------------2-----------|
--2--------2--1--------|-----------2h-4-------------|
--0--------------------|-----2----------------------|
-----------0-----------|--0-----4-------0-----------|
--------------0--------|----------------------------|


  ^        Come follow...                          Guinevere..
  E  E  E  E  Q    Q      E  E  S  S S  S E  E  E  E
--2--0-----------------|-----0---------------------0--|
--3-----3--2--2----0---|--------3p-2---------3--------|
--2--------2--2----1---|-------------4p-2-------4-----|
--0--------------------|------------------4-----------|
-----------0--0--------|--0---------------------------|
-------------------0---|------------------------------|


                               ^    All my honour...
  E  E  E  S  S E  E  E  E     E  E  E  E  Q    E  S  S
-------------------5--4--5--|--2--0---------------------|
----------------2-----------|--3-----3--2--2----0--2h-3-|
-----------2h-4-------------|--2--------2--2----1-------|
-----2----------------------|--0------------------------|
--0-----4-------0-----------|-----------0--0------------|
----------------------------|-------------------0-------|


                               ^        Will just be...
  E  E  E  S  S E  E  E  E     E  E  E  E  E  E  E  E
--0----------------5--4--5--|--2--0--------------------|
----------------2-----------|--3-----3--2--0-----3--2--|
-----------2h-4-------------|--2--------2--1-----------|
-----2----------------------|--0--------------2--------|
--0-----4-------0-----------|-----------0--------------|
----------------------------|--------------0-----------|

                                      Of the fall...
  E  E  E  E  E  E  E  E     E  E  E  E  E  E  E  E
--------2-----------2-----|--------2-----------------|
--------2--5--------2--2--|--------3-----------0-----|
--------2-----------2-----|-----2-----2--------1-----|
-----4-----------4--------|--0--------------2-----2--|
--------------4-----------|--------------------------|
--2-----------------------|--------------0-----------|

                          Am I some dancing...
  E  E  E  E  H           E  E  E  E  E  E  E  E
-----------------------|--------2-----2-----2-----|
-----2-----------------|--------2-----2-----2-----|
--------2--------------|--------2-----2-----2-----|
-----------2-----------|-----4-----4-----4-----4--|
--0-----------0--------|--4-----------------------|
-----------------------|--2-----------------------|

                    With the woman...
  E  E  E  E  E  E  E  E     E  E  E  E  E  E  E  E
--------4-----------------|--------2-----------------|
-----5-----7--5-----5-----|--------3-----------0-----|
--6-----------------6-----|-----2-----2--------1-----|
--6--------------6--------|--0--------------2-----2--|
--4--------------------4--|--------------------------|
--4-----------------------|--------------0-----------|

                      Is it just the blood...
  E  E  E  E  E  E  E  E     E  E  E  E  E  E  E  E
--------------------------*|--------2-----2-----2-----|
-----2--------------2-----*|--------2-----2-----2-----|
--------2-----------2-----*|--------2-----2-----2-----|
-----------2-----2-----2--*|-----4-----4-----4-----4--|
--0-----------0-----------*|--4-----------------------|
--------------------------*|--2-----------------------|

 Running through...      That sees..              nd myself..
  E  E  E  E  E  E  E  E     E  E  E  E  E  E  E  E
--------------4-----------|--------2-----------2-----|
--------5-----5-----5-----|--------3-----------3-----|
--------6-----------6-----|-----2-----2-----2-----2--|
--6--6-----6-----6-----6--|--0-----------------------|
--4-----------------------|--------------4-----------|
--4-----------------------|--------------------------|

                        Is this knight...
  E  E  E  E  E  E  E  E     E  E  E  E  E  E  E  E
--------------------------|--------2-----2-----2-----|
--------3-----------0-----|--------2-----2-----2-----|
--------4-----------1-----|--------2-----2-----2-----|
-----4-----4-----2-----2--|-----4-----4-----4-----4--|
--2-----------------------|--4-----------------------|
--------------0-----------|--2-----------------------|

                                                 I may shield...
  E  E  E  E  E  E  E  E     E  E  E  E  E  E  E  E
--------------4-----------|--------2-----------2-----|
--------5-----5-----5-----|--------3-----------3-----|
--------6-----------6-----|-----2-----2-----2-----2--|
--6--6-----6-----6-----6--|--0-----------------------|
--4-----------------------|--------------4-----------|
--4-----------------------|--------------------------|


  E  E  E  E  Q    Q       E  E  E  E  H
------------------------|-----------------------||
--------3----------3----|--2-----2-----0--------||
--------4----------4----|-----2-----2--1--------||
-----4-----4------------|-----------------------||
--2-----------2---------|--0--------0-----------||
------------------------|--------------0--------||

Ending:

    E  E  E  S  S E  E  E  E     E  E  E  E  Q    E  S  S
E||-------------------5--4--5--|--2--0---------------------|
B||----------------2-----------|--3-----3--2--2----0--2h-3-|
G||-----------2h-4-------------|--2--------2--2----1-------|
D||-----2----------------------|--0------------------------|
A||--0-----4-------0-----------|-----------0--0------------|
E||----------------------------|-------------------0-------|


                               ^
  E  E  E  S  S E  E  E  E     E  E  E  E  H
--0----------------5--4--5--|--2--0-----------------|
----------------2-----------|--3-----3--2--0--------|
-----------2h-4-------------|--2--------2--1--------|
-----2----------------------|--0--------------------|
--0-----4-------0-----------|-----------0-----------|
----------------------------|--------------0--------|


                               ^
  E  E  E  S  S E  E  E  E     E  E  E  E  Q    E  S  S
-------------------5--4--5--|--2--0---------------------|
----------------2-----------|--3-----3--2--2----0--2h-3-|
-----------2h-4-------------|--2--------2--2----1-------|
-----2----------------------|--0------------------------|
--0-----4-------0-----------|-----------0--0------------|
----------------------------|-------------------0-------|


                               ^
  E  E  E  S  S E  E  E  E     E  E  E  E  H
--0----------------5--4--5--|--2--5--4--5--7--------|
----------------2-----------|--3--3--3--3--9--------|
-----------2h-4-------------|--2-----------9--------|
-----2----------------------|--0-----------9--------|
--0-----4-------0-----------|--------------7--------|
----------------------------|-----------------------|


  W
--5----------------|
--5----------------|
--6----------------|
--7----------------|
--7----------------|
--5----------------|


Chords and lyrics:

A         D     E         A         D
Guinevere in my castle in Normandy
E          A            D    E         A
Make a new home with me come follow me down
A         D      E         A
Guinevere all my honor and glory
D    E         F#m   D      E           A
Will just be a story of the fall of the crown
F#m                        C#m
Am I some dancing Lancelot who only falls in love
      D                     E       A
With a woman who belongs to someone else
      F#m                     C#m,
Is it just the blood of Paris running through my veins
D                 D/C#       Bm                E
That sees a taken woman  and myself I can't restrain
        F#m
Is this knight of cups in his noble stance
       C#m
Just a jack of clubs  with an eye askance
       D                       D/C#
On the queen of hearts  in her royal blue
       Bm                              E
I may shield the poor but I can't save you
A         D     E         A         D
Guinevere in my castle in Normandy
E          A            D    E         A    E
Make a new home with me come follow me down
A         D      E         A
Guinevere all my honor and glory
D    E         F#m   D      E           A
Will just be a story of the fall of the crown
F#m                           C#m
Golden apples on the mountain this one fell to me
       D             E        A
We are planets in a heartless gravity
F#m
I never chose to make a choice
   C#m
It felt like someone else's voice
D                D/C#         Bm          E
Saying all those crazy things down on one knee
F#m                                    C#m
Cassandra never cast a shadow now it's heading to the shore
D                           D/C#              Bm          E
Oh the face that launched a thousand ships is sailing one more
A         D     E         A         D
Guinevere in my castle in Normandy
E          A            D    E         A     E
Make a new home with me come follow me down
A         D      E         A
Guinevere all my honor and glory
D    E         F#m   D      E           A
Will just be a story of the fall of the crown    

Added On December 16th, 2013

SHARE

Comments

blog comments powered by Disqus

VERSIONS

ADVERTISEMENT