Ludo Tabs

Topeka

1 versions

TAB

            Here are the chord progressions for Topeka as played by Andrew Volpe.
you guys can fill in the rhythm when you play.  it's real easy to play, too.  great 
great band! i've been lucky enough to share the stage with them.  enjoy!


Main riff:                                     Fill
E||-------0----------------0----|------------|------------0----|------|
B||--0----0----4----2------0----|------------|--4----2----0----|------|
G||--4----1----4----3------1----|------------|--4----3----1----|------|
D||--4----2----6----4------2----|------------|--6----4----2----|------|
A||--2----2----6----4------2----|------------|--6----4----2----|------|
E||-------0----4----2------0----|------------|--4----2----0----|------|
    "I found god in a.....night"              "you can't keep a good man..."

Bridge                        Outro         Ending
-------0---------0----|------|-------0--|---0---------|
--0----0----4----0----|------|--0----0--|---0----0----|
--4----1----4----1----|------|--4----1--|---1----4----|
--4----2----6----2----|------|--4----2--|---2----4----|
--2----2----6----2----|------|--2----2--|---2----2----|
-------0----4----0----|------|-------0--|---0---------|
"From now on, you can...."  "Saint has a past..."

Main riff   x3
Fill        x1
Main riff   x2
Fill        x1
Main riff   x2
Fill        x1
Bridge      x3
Main riff   x2
Outro       x4
Ending      x1

I found God in a catalytic converter
In Topeka on a Monday night.
I taste blood every time I think of summer
If that’s true, I’m in for quite a treat.

‘Cos I’m begging for the sun in a mid-Missouri winter,
Waiting desperately to get out of town.
No, you can’t keep a good man down.

You’ve been known to obsess over the future
Do you think you’ll get away from the past?
As you starve yourself just to make it through ‘til midnight
Consider what you might have found.
You think you’ve got a good thing now.

I found God in a catalytic converter
In Topeka on a Monday night.
Every saint has a past, every sinner has a future
So you know it keeps me hanging around.
No, you can’t keep a good man down.

From here on you can count on all things going
The way they must have from the start.
All you feel is the current flowing through you
And seizing your infected heart.

I found God in a catalytic converter
In Topeka on a Monday night.
I found God in a catalytic converter
In Topeka on a Monday night..
Every saint has ha past, every sinner has a future,
Saint has ha past, every sinner has a future,
Saint has ha past, every sinner has a future,
Saint has ha past, every sinner has a future,
Sinner has a future...
[Topeka Lyrics on
http://www.lyricsmania.com/ ]    

Added On December 16th, 2013

SHARE

Comments

blog comments powered by Disqus

ADVERTISEMENT