Ludwig Van Beethoven Tabs

Joyful Joyful

2 versions

TAB

            Joyful Joyful Tab by Ludwig Van Beethoven


beethoven is a conductor who lived in the 1900's. He is one of the most famous muscians ever.



tabbed by: zep123
email:zepman74@yahoo.com
song: joyful, joyful      theme from sympthony #9 


this is the main riff, if it were to be played on the guitar, i think.


e---------------------------------------------------------|
b---------------------------------------------------------|
g-9--9--11--13--11--11--9--12--10--10--12--14--14--12--12-|
f-7--7--9---11--11--9---7--10--8---8---10--12--12--10--10-|
a---------------------------------------------------------|
e---------------------------------------------------------|


e---------------------------------------------------------|
b---------------------------------------------------------|
g-9--9--11--13--11--11--9---------------------------------|
f-7--7--9---11--11--9---7--12--10--10--12--14--14--10--10-|
a--------------------------10--8---8---10--12--12--8---8--|
e---------------------------------------------------------|


e-----------------------------------------------------------------|
b-----------------------------------------------------------------|
g---------------------9--11--9--------------11--9--------------12-|
f-12--12--14--10--12--7--9---7--10--12--14--9---7--12--10--12--10-|
a-10--10--12--8---10------------8---10--12---------10--8---10-----|
e-----------------------------------------------------------------|



e---------------------------------------------------------|
b---------------------------------------------------------|
g-9--9--11--13--11--11--9--12--10--10--12--14--14--12--12-|
f-7--7--9---11--11--9---7--10--8---8---10--12--12--10--10-|
a---------------------------------------------------------|
e---------------------------------------------------------|    

Added On December 5th, 2013

SHARE

Comments

blog comments powered by Disqus

VERSIONS

ADVERTISEMENT