Ludwig Van Beethoven Tabs

Ode To Joy

3 versions

TAB

            Ode To Joy Tab by Ludwig Van Beethoven


This is my first tab, it sounds good and i dont think there are many mistakes
so enjoy!

e|-0---0---1---3---3---1---0------|-------------0---0------------------|
B|-----------------------------3--|-1---1---3-----------3---3----------|
G|--------------------------------|------------------------------------|
D|--------------------------------|------------------------------------|
A|--------------------------------|------------------------------------|     
E|--------------------------------|------------------------------------|

e|-0---0---1---3---3---1---0------|-------------0----------------------|
B|-----------------------------3--|-1---1---3-------3---1---1----------|
G|--------------------------------|------------------------------------|
D|--------------------------------|------------------------------------|
A|--------------------------------|------------------------------------|
E|--------------------------------|------------------------------------|

e|---------0-----------0-1-0------|-----0-1-0--------------------------|
B|-3---3-------1---3-----------1--|-3-----------3---1---3--------------|
G|--------------------------------|-------------------------0----------|
D|--------------------------------|------------------------------------|
A|--------------------------------|------------------------------------|
E|--------------------------------|------------------------------------|

e|-0---0---1---3---3---1---0------|-------------0----------------------|
B|-----------------------------3--|-1---1---3-------3---1---1----------|
G|--------------------------------|------------------------------------|
D|--------------------------------|------------------------------------|
A|--------------------------------|------------------------------------|
E|--------------------------------|------------------------------------|




Barrett    

Added On December 5th, 2013

SHARE

Comments

blog comments powered by Disqus

VERSIONS

ADVERTISEMENT