Lynyrd Skynyrd Tabs

Good Luck Bad Luck

1 versions

TAB

            Intro:
E---------------------------------------------------------------------------|
B---------------------------------------------------------------------------|
G---------77-55-------------------------------------------------------------|
D---------77-55-555---------------------------------------------------------|
A-------3s55-33-555---------------------------------------------------------|
E---3h5---------333---------------------------------------------------------|
D
D
e |---|-x-|---|---|---|
B |---|---|-x-|---|---|
G |---|-x-|---|---|---|
D |---|---|---|---|---|
A |---|---|---|---|---|
E |---|---|---|---|---|
C
C
e |---|---|-x-|---|---|
B |-x-|---|---|---|---|
G |---|---|---|---|---|
D |---|-x-|---|---|---|
A |---|---|-x-|---|---|
E |---|---|---|---|---|
G
G
e |---|---|-x-|---|---|
B |---|---|---|---|---|
G |---|---|---|---|---|
D |---|---|---|---|---|
A |---|-x-|---|---|---|
E |---|---|-x-|---|---|
I ain’t the son of the seventh son black cats won’t cross my path Good luck comes I just watch it run and it sure does run out fast I wasn’t born under no bad sign, but it was friday the 13th East, west, no, yes Hot, cold, tell you this Ain’t nothin’ in between D
D
e |---|-x-|---|---|---|
B |---|---|-x-|---|---|
G |---|-x-|---|---|---|
D |---|---|---|---|---|
A |---|---|---|---|---|
E |---|---|---|---|---|
C
C
e |---|---|-x-|---|---|
B |-x-|---|---|---|---|
G |---|---|---|---|---|
D |---|-x-|---|---|---|
A |---|---|-x-|---|---|
E |---|---|---|---|---|
Its either good luck -- I’m the last to get it D
D
e |---|-x-|---|---|---|
B |---|---|-x-|---|---|
G |---|-x-|---|---|---|
D |---|---|---|---|---|
A |---|---|---|---|---|
E |---|---|---|---|---|
C
C
e |---|---|-x-|---|---|
B |-x-|---|---|---|---|
G |---|---|---|---|---|
D |---|-x-|---|---|---|
A |---|---|-x-|---|---|
E |---|---|---|---|---|
Bad luck -- I’m the first D
D
e |---|-x-|---|---|---|
B |---|---|-x-|---|---|
G |---|-x-|---|---|---|
D |---|---|---|---|---|
A |---|---|---|---|---|
E |---|---|---|---|---|
C
C
e |---|---|-x-|---|---|
B |-x-|---|---|---|---|
G |---|---|---|---|---|
D |---|-x-|---|---|---|
A |---|---|-x-|---|---|
E |---|---|---|---|---|
When it’s good, ain’t nothin’ better G (let ring) When it’s bad, ain’t nothin’ worse Well life can be a little hard sometimes, you do what you gotta do A lot depends on the luck a man has and the cards that’s been dealt to you I’d fold this hand if I could or at least take a card or two I been around Had my ups and downs Tell me does it sound little like you Good luck -- I’m the last to get it Bad luck -- I’m the first When it’s good, ain’t nothin’ better When it’s bad, ain’t nothin’ worse Its either good luck -- I’m the last to get it Bad luck -- I’m the first When it’s good, ain’t nothin’ better When it’s bad, ain’t nothin’ worse etc............

Added On December 16th, 2013

SHARE

Comments

blog comments powered by Disqus

ADVERTISEMENT