Macklemore Tabs

Inhale Deep

1 versions

TAB

            -------------------------------------------------------------------------------
                             Inhale Deep - Macklemore
-------------------------------------------------------------------------------
Tabbed by: Krahtal
Email: benjaminkirchhof@web.de

Tuning: Standart

e|--------------------------------------------------------------------------|
B|-------6---8---6---------------6---8---6----------------------------------|
G|-------------------9---7---5---------------9---7---5----------------------|
D|--------------------------------------------------------------------------|
A|--------------------------------------------------------------------------|
E|--------------------------------------------------------------------------|

e|--------------------------------------------------------------------------|
B|-------6---8---6----------------------------------------------------------|
G|-------------------9---7---5-----7---9---10-------------------------------|
D|--------------------------------------------------------------------------|
A|--------------------------------------------------------------------------|
E|--------------------------------------------------------------------------|

This goes true the whole song    

Added On December 16th, 2013

SHARE

Comments

blog comments powered by Disqus

ADVERTISEMENT