Mads Langer Tabs

In These Waters

1 versions

TAB

            capo 3rd fret

intro/verse:
  G        G/B      Cadd9    G/B
---------------------------------------|
---------------------------------------|
-----0--------0--------0--------0------|
---0---0-0--0---0-0--0---0-0--0---0-0--| repeat
-----------2-2-2-2--3-3-3-3--2-2-2-2---|
--3-3-3-3------------------------------|

bridge:
  F6add9           Em
-----------------------------------|
-----------------------------------|
-----0----0----0----0----0----0-0--|
----0----0----0----0----2----2--2--|
---3----3----3----3----2----2---2--|
--1----1----1----1----0----0----0--|

chorus:
  Cmaj7     Dadd11    Cmaj7     Dadd11   Em
---------------------------------------------0--------0--------0--------0------|
-----0----0----3----3----0----0----3----3--------0--------0--------0--------0--|
----0----0----0----0----0----0----0----0---0---0----0---0----0---0----0---0----|
---2----2----4----4----2----2----4----4-----2---2----2---2----2---2----2---2---| x2
--3----3----5----5----3----3----5----5-----------------------------------------|
------------------------------------------0---0----0---0----0---0----0---0-----|

  Am7      G/B      Cadd9    Dadd11   Am7     G/B     Cadd9
-----------------------------------------------------------|
--------------------------------------------------------0--|
-----0--------0--------0--------0--------0--------0-----0--|
---2---2-2--0---0-0--0---0-0--4---4-4--2---2-2--0---0-0-0--|
--0-0-0-0--2-2-2-2--3-3-3-3--5-5-5-5--0-0-0-0--2-2-2-2--3--|
-----------------------------------------------------------|

second chorus ending:
  Am7      G/B      Cadd9    Dadd11   Am7     G/B     Cadd9       Dsus4  D
--------------------------------------------------------------------3----2--|
--------------------------------------------------------------------3----3--|
-----0--------0--------0--------0--------0--------0--------0--------2----2--|
---2---2-2--0---0-0--0---0-0--4---4-4--2---2-2--0---0-0--0---0-0--0-0----0--|
--0-0-0-0--2-2-2-2--3-3-3-3--5-5-5-5--0-0-0-0--2-2-2-2--3-3-3-3-------------|
----------------------------------------------------------------------------|

breakdown:
Em  Cmaj7  Am7  D
Em  Cmaj7  Am7  Dsus4 D

i am shy i'm standing
on the other side
watching while you're passing by
rise and fall our names
are on the concrete wall
but maybe you have forgot it all

remember me when you're reaching
out for company
i'll be standing in your memory
you left me hanging in the dark

you're fading in my silent heart
and how i wish that you
and i collide collide
i am falling further down and i'm
about to hit the underground
underground
in these waters
we are left to drown
in these waters
we are left to drown

hold my hand
we don't need to understand
why we're loving in a thunderland
i'm still here
i'm afraid that i might disappear
in your absence i can not see clear
you left me hanging in the dark

you're fading in my silent heart
and how i wish that you
and i collide collide
i am falling further down and i'm
about to hit the underground
underground
in these waters
we are left to drown
in these waters
we are left to drown

and if you tear down if you tear down
the walls that
the walls that surround us
and if you tear down if you tear down
the walls that surround us

you left me hanging in the dark
remember me when you're reaching
out for company
i'll be standing in your memory    

Added On December 16th, 2013

SHARE

Comments

blog comments powered by Disqus

ADVERTISEMENT