Man Overboard Tabs

Fantasy Girl

1 versions

TAB

            ------------------------------------------------------------------------------
                        FANTASY GIRL - MAN OVERBOARD
------------------------------------------------------------------------------

Tabbed by : Boris Paskhaver (bigbadb)
Email     : bp771@nyu.edu


Tuning: Eb (Half Step Down)

INTRO / VERSE ONE (0:01):

   (x6 - x2 for Intro + x4 for Verse One)
eb|--------------------------------------------------------------------------|
Bb|--------------------------------------------------------------------------|
Gb|--------------------------------------------------------------------------|
Db|--6-----6---------6-----2---------2---------2-2-2-------------------------|
Ab|--4-4-4-4-4-4-4-4-4-4-4-0-0-0-0-0-0-0-0-0-0-0-0-0-------------------------|
Eb|--------------------------------------------------------------------------|
       P.M   P.M----|  P.M   P.M----|  P.M----|
  3    She called me kinda    late last night
  4    And all those pretty little words       came
  5    She fell into my arms again 
  6       lie here forever

eb|--------------------------------------------------------------------------|
Bb|--------------------------------------------------------------------------|
Gb|--------------------------------------------------------------------------|
Db|--4-----4---------4-----4---------4---------4-4-4-------------------------|
Ab|--2-2-2-2-2-2-2-2-2-2-2-2-2-2-2-2-2-2-2-2-2-2-2-2-------------------------|
Eb|--------------------------------------------------------------------------|
       P.M   P.M----|  P.M   P.M----|  P.M----|
  3          Said that she knew everything
  4    out                     And just like I planned
  5         and I can pretend           that i won't
  6                                            and wait for the end

PRECHORUS ONE (0:41)

   (x1)
eb|--------------------------------------------------------------------------|
Bb|--------------------------------------------------------------------------|
Gb|--6-------------2-------------4----------------6------2-------------------|
Db|--6--  HOLD  ---2--  HOLD  ---4  HOLD  --------6------2-------------------|
Ab|--4-----------4-0-----------0-2----------4-4-4-4----4-0--- PICK ----------|
Eb|--------------------------------------------------------- SCRAPE ---------|
                                           P.M.--|

CHORUS ONE (0:55)

   (x4)
eb|--------------------------------------------------------------------------|
Bb|--------------------------------------------------------------------------|
Gb|--6-6-6-6-6-6-6-6--9-9-9-9-9-9-9-9--2-2-2-2-2-2-2-2--4-4-4-4-4-4-4-4------|
Db|--6-6-6-6-6-6-6-6--9-9-9-9-9-9-9-9--2-2-2-2-2-2-2-2--4-4-4-4-4-4-4-4------|
Ab|--4-4-4-4-4-4-4-4--7-7-7-7-7-7-7-7--0-0-0-0-0-0-0-0--2-2-2-2-2-2-2-2------|
Eb|--------------------------------------------------------------------------|
  1   You're right     should be          Tonight, tonight, I could
  2   Just gave up     stupid little    world 
  3   You're right     was a fake       You're right,  I am in denial
  4   Just go home    perfect little    girl            You're my fantasy girl

VERSE TWO (1:21):

   (x6 - x2 for intro riff, x4 for Verse Two)
eb|--------------------------------------------------------------------------|
Bb|--------------------------------------------------------------------------|
Gb|--------------------------------------------------------------------------|
Db|--6-----6---------6-----2---------2---------2-2-2-------------------------|
Ab|--4-4-4-4-4-4-4-4-4-4-4-0-0-0-0-0-0-0-0-0-0-0-0-0-------------------------|
Eb|--------------------------------------------------------------------------|
       P.M   P.M----|  P.M   P.M----|  P.M----|
  3    said, she crept back up inside my bed
  4    all those words that made me fall came out
  5    everything just fell right back
  6    lie with her all night now and wait to

eb|--------------------------------------------------------------------------|
Bb|--------------------------------------------------------------------------|
Gb|--------------------------------------------------------------------------|
Db|--4-----4---------4-----4---------4---------4-4-4-------------------------|
Ab|--2-2-2-2-2-2-2-2-2-2-2-2-2-2-2-2-2-2-2-2-2-2-2-2-------------------------|
Eb|--------------------------------------------------------------------------|
       P.M   P.M----|  P.M   P.M----|  P.M----|
  3             said that she missed everything 
  4                            and just like a trap
  5         and we were on track               and I
  6                                        wait to react

PRECHORUS TWO (2:01)

   (x1)
eb|--------------------------------------------------------------------------|
Bb|--------------------------------------------------------------------------|
Gb|--6-------------2-------------4----------------6------2-------------------|
Db|--6--  HOLD  ---2--  HOLD  ---4  HOLD  --------6------2-------------------|
Ab|--4-----------4-0-----------0-2----------4-4-4-4----4-0--- PICK ----------|
Eb|--------------------------------------------------------- SCRAPE ---------|
                                           P.M.--|

CHORUS TWO (2:14)

   (x4)
eb|--------------------------------------------------------------------------|
Bb|--------------------------------------------------------------------------|
Gb|--6-6-6-6-6-6-6-6--9-9-9-9-9-9-9-9--2-2-2-2-2-2-2-2--4-4-4-4-4-4-4-4------|
Db|--6-6-6-6-6-6-6-6--9-9-9-9-9-9-9-9--2-2-2-2-2-2-2-2--4-4-4-4-4-4-4-4------|
Ab|--4-4-4-4-4-4-4-4--7-7-7-7-7-7-7-7--0-0-0-0-0-0-0-0--2-2-2-2-2-2-2-2------|
Eb|--------------------------------------------------------------------------|
  1   You're right     should be          Tonight, tonight, I could
  2   Just gave up     stupid little    world 
  3   You're right     was a fake       You're right,  I am in denial
  4   Just go home    perfect little    girl            You're my fantasy girl

OUTRO (2:40)

   (x2)
eb|--------------------------------------------------------------------------|
Bb|--------------------------------------------------------------------------|
Gb|--------------------------------------------------------------------------|
Db|--6-----6---------6-----2---------2---------2-2-2-------------------------|
Ab|--4-4-4-4-4-4-4-4-4-4-4-0-0-0-0-0-0-0-0-0-0-0-0-0-------------------------|
Eb|--------------------------------------------------------------------------|
       P.M   P.M----|  P.M   P.M----|  P.M----|
  1    girl                            to my fantasy 
  2    girl        oh     oh      oh
  
eb|--------------------------------------------------------------------------|
Bb|--------------------------------------------------------------------------|
Gb|--------------------------------------------------------------------------|
Db|--4-----4---------4-----4---------4---------4-4-4-------------------------|
Ab|--2-2-2-2-2-2-2-2-2-2-2-2-2-2-2-2-2-2-2-2-2-2-2-2-------------------------|
Eb|--------------------------------------------------------------------------|
       P.M   P.M----|  P.M   P.M----|  P.M----|
  1  girl                            you're my fantasy
  2                                      to my fantasy girl

NOTE: The drums finish up the song so if you're playing along,
cut off the final notes and chords of the last riff.    

Added On December 16th, 2013

SHARE

Comments

blog comments powered by Disqus

ADVERTISEMENT