Manic Street Preachers Tabs

Underdogs

2 versions

TAB

            Very very simple song, so hope my chords are ok. Great new album from the manics I reckon.

-||---------|---------|---------|---------|---------|---------|---------||----|
-||---------|---------|---------|---------|---------|---------|---------||----|
-||---------|---------|---------|---------|---------|---------|---------||----|
-||-8-8-8-8-|-8-7-5-3-|-3-3-3-3-|-3-3-3-3-|-7-7-7-7-|-7-7-5-5-|-5-5-7-7-||----|
-||-8-8-8-8-|-8-7-5-3-|-3-3-3-3-|-3-3-3-3-|-7-7-7-7-|-7-7-5-5-|-5-5-7-7-||----|
-||-6-6-6-6-|-6-5-3-1-|-1-1-1-1-|-1-1-1-1-|-5-5-5-5-|-5-5-3-3-|-3-3-5-5-||----|
    Intro & Verse

---------|---------|-------|--------|--------|-------|-------|-------|-------|
---------|---------|-------|--------|--------|-------|-------|-------|-8-----|
---------|---------|-------|-7------|-2------|-9-----|-4-----|-7-----|-8-----|
-3-3-3-3-|-3-3-3-3-|-------|-8------|-3------|-10----|-5-----|-8-----|-8-----|
-3-3-3-3-|-3-3-3-3-|-------|-8------|-3------|-10----|-5-----|-8-----|-6-----|
-1-1-1-1-|-1-1-1-1-|-------|-6------|-1------|-8-----|-3-----|-6-----|-------|
 Bridge             Chorus:  Bb       F        C       G       Bb      D#
			     And like the underdogs we are..

-----------------|-----------------|------------------|--------------------|---|
-----------------|-----------------|------------------|--------------------|---|
-9-9-9-9-9-9-9-9-|-9-9-9-9-9-9-9-9-|--3-2-0-----------|--------------------|---|
-1010101010101010|-1010101010101010|--------3v-2-2v---|--------------------|---|
-1010101010101010|-1010101010101010|------------------|--------------------|---|
-8-0-8-0-8-0-8-0-|-8-0-8-0-8-0-8-0-|------------------|--------------------|---|
 C                                   Solo Over Chorus   End on an rptd. F

neil_ok@hotmail.com for insults    

Added On December 16th, 2013

SHARE

Comments

blog comments powered by Disqus

VERSIONS

ADVERTISEMENT