Marcy Playground Tabs

Saint Joe On The School Bus

6 versions

TAB

            Saint Joe On The School Bus Tab by Marcy Playground


Marcy Playground
Saint Joe on the School Bus


------------------------------------------------------------------|
------------------------------------------------------------------|
------------------------------------------------------------------|
------------------------------------------------------------------|
-4-4-4-4--7-7-7-7--2-2-2-2----------------------------------------|
-2-2-2-2--5-5-5-5--0-0-0-0-000-1----------------------------------|
p.m.--------------------------------------------------------------|

-------------------|---------------------------------------------|
-------------------|---------------------------------------------|
-------------------|---------------------------------------------|
-------------------|---------------------------------------------|
----2---2---2-2-2--|--------0-----4-----2---2--------------------|
-0-0-0-0-0-0-0-0---|-0-1-2-2-2-5-5-5-0-0-0-0-0-------------------|
"oh my"             Chorus

-----------------------------------------------------------------|
-----------------------------------------------------------------|
-----------------------------------------------------------------|
---------4-------------------------------------------------------|
--------2----7-----2---------------------------------------------|
-0-0-1-2--2-5-5-0-0----------------------------------------------|    

Added On December 5th, 2013

SHARE

Comments

blog comments powered by Disqus