Marilyn Manson Tabs

Putting Holes In Happiness

5 versions

TAB

            e-------------------------------------3---3---3----3---3--------|
B-------------------------------------3---3---3----3---3--------|
G-------------------------------------------------------------2-|
D---------0---0---2------2----2--2-----------------2---2------2-|
A---0--2-----------------2----2--2----2---2---2----3---3------0-|
E------------------------0----0--0----3---3---3-----------------|

X3

e-----------------------3--3--3--3--3---3--3--3---2--2--2—-2--2--|
B-----------------------3--3--3--3--3---3--3--3---3--3--3—-3—-3--|
G-------------------------------------------------2--2--2--2--2--|
A---------0---0---2-----3--3--3--3--3—--3--3--3------------------|
D---0-2-----------------2--2--2--2--2---2--2--2------------------|
E----------------------------------------------------------------|

X1


This is pretty much the whole song. This is from the new album:
EAT ME, DRINK ME.    

Added On December 16th, 2013

SHARE

Comments

blog comments powered by Disqus