Mark Knopfler Tabs

Quality Shoe

2 versions

TAB

            -------------------------------------------------------------------------------
			     Mark Knopfler - Quality Shoe
-------------------------------------------------------------------------------
Tabbed by: fffoma@gmail.com

Capo: 5

Chords:

C7M [x3200x]
C#m6 [x4232x]

  Lick1:
    C7M G F
e|-------|------------------|
B|--0----|-1----------------|
G|--0---0h2-----------------|
D|------0h3-----------------|
A|-------|-3----------------|
E|-------|-1----------------|

  Lick2:
   G7                C
e|-----------------|--------|
B|-----------------|--------|
G|-----------------|--------|
D|-----------------|--------|
A|-----------0-2-0-|-3------|
E|---3--3----------|--------|

  Lick3:
    C               G7
e|-----------------|--------|
B|-----------------|--------|
G|-----------------|--------|
D|-----------------|--------|
A|--3--3-2--2-0--0-|--------|
E|-----------------|-3------|

Intro:

| C F | C F | C F | C Lick2

                          F                G7
You got your toecaps reinforced with steel
              C            Lick1 (C7M  G  F)
Hard-wearing sole and heel
            G7                   C   C#m6  G  C
Make those tired feet feel like new
               F                G7
Take your pick,  black or Brown
                              C          Lick1 (C7M  G  F)
Great for the country or the man in town
              G7              C  F  C  G7  C
You're gonna need a quality shoe

                    F           G7
You don't want no stand-by pair
                        C            Lick1 (C7M  G  F)
'Cos these'll take the wear and tear
         G7                C   C#m6  G  C
Made to take good care of you
                  F           G7
For that trip by road or rail
                         C            Lick1 (C7M  G  F)
For extra grip on those rocky trails
              G7              C  F  Fm  Lick3 (C  G7)
You're gonna need a quality shoe

                          C              G7
Now they maybe ain't too hot for dancing
                       C             Em
But I don't foresee too much of that
                 B7
You ain't exactly gonna be prancing
  Em           C#m6
Around in the moonlight
        Dm             G7
With a cane and a top hat


If you could use a change of pace
And be excused from the rat race
Just take a look at what's on view
Lace 'em up, walk around
I guarantee you can't wear 'em down
You're gonna need a quality shoe

Now I wish you sunny skies
And happiness wherever you may go
But you got to realise
There'll be wind, there'll be rain
And occasional snow

You're gonna want to smile in them
If you're gonna walk a mile in them
There'll be times when you'll be blue
To laugh at rainy days and then
Make your getaways in them
You're gonna need a quality shoe

You got your toecaps reinforced with steel
Hard-wearing sole and heel
Make those tired feet feel like new
Take your pick, black or Brown
Great for the country or the man in town
You're gonna need a quality shoe    

Added On December 16th, 2013

SHARE

Comments

blog comments powered by Disqus

VERSIONS

ADVERTISEMENT