Maroon 5 Tabs

Control Myself

2 versions

TAB

            Intro
                                                  __________________
                                                  | 1,2
e|---------------------------------------------------------------| |
B|------5---------------------------------------------5----------| |
G|------4---------------------------------------------4----------|.|
D|----------------------5---------5-----5-------5-------------5--|.|
A|------------------4-7-----3s4-7-----6-------6-------------6----| |
E|--0-4-----0-3s4-7-----------------7-------7-----0-4-----7------| |


Chorus
 ___________                                                ____________ 
 | 3                                                        | 1
 E                  Db              A               Gb      B
||-------------------------------------------------------------------| |
||-------------------------------------------------------------------| |
||--9-9-9-9-9-9-9-9-6-6-6-6-6-6-6-6-------------------------4-4-4-4--|.|
||--9-9-9-9-9-9-9-9-6-6-6-6-6-6-6-6-7-7-7-7-7-7-7-7-4-4-4-4-4-4-4-4--|.|
||--7-7-7-7-7-7-7-7-4-4-4-4-4-4-4-4-7-7-7-7-7-7-7-7-4-4-4-4-2-2-2-2--| |
||----------------------------------5-5-5-5-5-5-5-5-2-2-2-2----------| |

_____________
| 2
   Gb
|-----------|---------------------------------------------------------------|
|-----------|----------------------------------------------------5----------|
|--4-4-4-4--|--9-9-9---------------------------------------------4----------|
|--4-4-4-4--|--9-9-9---------------5---------5-----5-------5-------------5--|
|--2-2-2-2--|--7-7-7-----------4-7-----3s4-7-----6-------6-------------6----|
|-----------|----------0-3s4-7-----------------7-------7-----0-4-----7------|

                                                 __________________
                                                 | 1
|---------------------------------------------------------------| |  To
|------5---------------------------------------------5----------| |  Chorus
|------4---------------------------------------------4----------|.|
|----------------------5---------5-----5-------5-------------5--|.|
|------------------4-7-----3s4-7-----6-------6-------------6----| |
|--0-4-----0-3s4-7-----------------7-------7-----0-4-----7------| |


I haven't yet figured out how it goes at the end of the second chorus so this is all you get for now.    

Added On December 16th, 2013

SHARE

Comments

blog comments powered by Disqus

VERSIONS

ADVERTISEMENT