Mars Volta Tabs

Asilos Magdalena

7 versions

TAB

            Asilos Magdalena Tab by Mars Volta


Asilos Magdalena by the Mars Volta

tabbed by: mikedapike

That song is played on an acoustic guitar and it's not so hard to play. There are mostly appreggios.
There are some extra riffs in the second verse and the outro. However, I didn't tab them.
Just like the intro with the weird effects.^^ But I will do the extra riffs when I've got
enough time.
well, that's my first tab. Enjoy!

Fingerpicking

verse part
0:42 min
e-x-----7-----7---7-|---------|-------3---|---------------|---------------|
b-x-----6-----6---6-|-----3---|----2--2---|-----2---2---2-|----6------6---|
g-x---7-----7-------|---2-----|-3-------3-|---0-0---0---0-|---0------0----|
D-x-0-----0-----0---|-3-----3-|-----------|-2-----2---2---|-/7----7-5---5-|
A-x-----------------|---------|-----------|---------------|---------------|
E-x-----------------|---------|-----------|---------------|---------------|

bridge 1
1:22 min
e---------|-------------|
b-----8---|-------10----|
g---7-----|----10-------|
D-8-----8-|-11-------11-|
A---------|-------------|
E---------|-------------|

chorus
1:25 min
e-12-------|10-------|-8--------|-6------|-6------6-|-3-------|-5----------|
b--------0-|---------|----------|--------|----------|---------|------------|
g----------|-----7---|----9-----|--------|----------|-----3---|------------|
D-0--------|---7-----|---8------|----7---|-----7----|---2---2-|-----7-7(/)-|
A-----12---|8------8-|-10---10/-|--5---5-|---5------|---------|---7--------|
E---13-----|---------|----------|-6------|-6------6-|-3-------|-5----------|

e-1-------|-3-----3-|----------------------------------------------|
b---------|---------|-2-----2(pick that note harder than the rest)-|
g-----2---|-----3---|-----2----------------------------------------|
D---0---0-|---2-----|---2------------------------------------------|
A---------|---------|-0--------------------------------------------|
E-1-------|-3-----3-|----------------------------------------------|

bridge 2
2:03
e-1--1-1-1-1-0-----|-0-|-3--3-3-3-------|-----------------|----------------|
b-3------------3---|-2-|-3--------6-5-6-|-6-6-6-5-3--3/5~-|-2------2-------|
g-2--------------2-|-0-|-3--------7-----|---------0-------|-2-2h3--2-2h3-2-|
D-0----------------|-2-|-5--------------|-----------------|---2h3----2h3-2-|
A------------------|-0-|----------------|-----------------|----------------|
E------------------|---|----------------|-----------------|----------------|

song structure:

1.verse: 4x
2.bridge 1
3.chorus: 2x
4.bridge 2
5.verse: 4x
6.bridge 1
7.chorus: 2x
8.bridge 2 (it's a bit different to the first time)
9.verse: many times^^    

Added On December 5th, 2013

SHARE

Comments

blog comments powered by Disqus